Muusikoiden.net - Keskustelu
Kirjoittaja:mullet3000
Alue:Kitarat: soittaminen
Aihe:Jelppikerho: "Soinnut tähän biisiin"
Aika:09.11.2006 09:43
Nooo miten olis
 
Von Hertzen Brothers - Let Thy Will Be Done
 
Pakk osaada jostain tähän nuotit/tabit, lyötiin kaverin kanssa vetoa et en tuu koskaa oppii tota :))

 
Tällästä olen löytänyt netistä:
****************
Semmä voin sanoo, että riffi menee Eestä ja säkkärit Hoosta
****************
e-----------------------------------------|
A ----------------------------------------|
D-----------------------------------------|
G----------------------------7-9-7------| 3x
B--7-5-----------5-7-7/9---------9----|
E------7-5-3/5-------------------------|
 
e-----------------------------------------|
A-----------------------------------------|
D-----------------------------------------|
G-----------------------------------------|
B-----------7---------------7------------|
E--0--0-0---0--0--0-0-0--------------|
 
**************
Sit voit yrittää kattoo miten Mikko soittaa tolla videolla ja yrität ite perässä:
 
http://www.vonhertzenbrothers.com/index_5.php?s=13
Copyright ©1999-2019, Muusikoiden Net ry. Kaikki oikeudet pidätetään.
https://muusikoiden.net/keskustelu/posts.php?c=38&t=125203