Muusikoiden.net
04.12.2016
 

Kitarat: soittaminen »

Keskustelualueet | Lisää kirjoitus aiheeseen | HakuSäännöt & Ohjeet | FAQ | Kirjaudu sisään | Rekisteröidy

Aihe: Sointujen muodostaminen kitaralla
1 2 3 4 510 11 12 13 14
Pande
28.05.2004 10:32:35 (muokattu 31.12.2006 10:21:30)
Musiikkinäyte       Linkitä kirjoitukseen Tulosta  

Yritetään kerätä tähän threadiin aineistoa joka auttaa rakentamaan sointuja kitaralla. Soinnuista löytyy lisää tietoa teoriapalstalta, tässä keskitytään sointujen muodostamiseen kitaralla.
 
INTERVALLIT OTELAUDALLA:

    o                                                                       o
-|--4--|-----|--5--|-----|--6--|-----|--7--|--*--|-----|--2--|-----|--3--|--4--|-
-|--*--|-----|--2--|-----|--3--|--4--|-----|--5--|-----|--6--|-----|--7--|--*--|-
-|-----|--6--|-----|--7--|--*--|-----|--2--|-----|--3--|--4--|-----|--5--|-----|-
-|-----|--3--|--4--|-----|--5--|-----|--6--|-----|--7--|--*--|-----|--2--|-----|-
-|-----|--7--|--*--|-----|--2--|-----|--3--|--4--|-----|--5--|-----|--6--|-----|-
-|--4--|-----|--5--|-----|--6--|-----|--7--|--*--|-----|--2--|-----|--3--|--4--|-

 
1 = Priimi, perussävel
2 = Sekunti (~ 9 = Nooni)
3 = Terssi
4 = Kvartti (~ 11 = Undesimi)
5 = Kvintti
6 = Seksti (~ 13 = Tredesimi)
7 = Septimi
 
SOINTURAKENTEET: (Lisäilen näitä vähitellen.)
 
Huomattavaa merkinnöistä: Alennettua säveltä voidaan merkitä joko b -etuliitteellä tai miinusmerkillä, ja korotettua taas joko # -merkillä tai plussalla. Eli merkinnät Bm7b5 sekä Bm7-5 tarkoittavat samaa asiaa, samoin G7#5 ja G7+5. (Toisaalta merkintä A- voi taas tarkoittaa samaa kuin Am, merkintätapoja on lukuisia, näistä pitäisi tehdä jossainvaiheessa jokin kuvamuotoinen taulukko...)

X5        1  5                    (ei ole oikeastaan sointu)
X         1  3   5
Xm        1  b3  5
Xdim      1  b3  b5
Xaug      1  3   #5
Xb5       1  3   b5
Xsus4     1  4   5
Xsus2     1  2   5
Xsus2sus4 1  2   4   5
X6        1  3   5   6
X7        1  3   5   b7
Xm7       1  b3  5   b7
Xmaj7     1  3   5   7
Xmmaj7    1  b3  5   7
Xdim7     1  b3  b5  6            (6 tässä oikeammin bb7)
Xadd9     1  3   5   2
Xmadd9    1  b3  5   2
Xm6       1  b3  5   6
X7sus4    1  4   5   b7
X7b5      1  3   b5  b7
X7#5      1  3   #5  b7
X6add9    1  3   5   6   2 
X9        1  3   5   b7  2
X9b5      1  3   b5  b7  2
X9#5      1  3   #5  b7  2
Xm9       1  b3  5   b7  2
Xmaj9     1  3   5   7   2
X11       1  3   5   b7  2   4
X11b9     1 (3)  5   b7  b2  4
X13       1  3   5   b7  2   6
Xm13      1  b3  5   b7  2   6
Xmaj11    1  3   5   7   2   4
Xmaj13    1  3   5   7   2   6
Xmaj9#11  1  3   5   7   2  #4
Xmaj13#11 1  3   5   7   2  #4   6

 
X yllä tarkoittaa mitä tahansa kromaattista säveltä (eli esim. C tai F# tai Gb).
 
Merkintä C/E tarkoittaa C-duurisointua jonka bassosävelenä on E. Lisäksi kkoska E kuuluu C-duurisointuun (E on C-duurisoinnun terssi (3)) on tämä kyseinen sointu myös C-duurin (terssi-)käännös. C-duurisoinnun kvinttikäännös taas olisi C/G.
 
Esimerkki soinnun muodostamisesta:
 
Muodostetaan C6 (soinnun rakenne on 1-3-5-6).
 
1) Etsi haluamastasi otelaudan kohdasta C-sävel. Katso samalla tavalla ylläolevalta kartalta lähimmät muut perussävelet (*).

E-|-----|-----|-----|-----|-----|-----|-----|-----|-----|-----|-----|-----|-----|-
B-|--*--|-----|-----|-----|-----|-----|-----|-----|-----|-----|-----|-----|-----|-
G-|-----|-----|-----|-----|--*--|-----|-----|-----|-----|-----|-----|-----|-----|-
D-|-----|-----|-----|-----|-----|-----|-----|-----|-----|-----|-----|-----|-----|-
A-|-----|-----|--*--|-----|-----|-----|-----|-----|-----|-----|-----|-----|-----|-
E-|-----|-----|-----|-----|-----|-----|-----|-----|-----|-----|-----|-----|-----|-

 
2) Etsi nuotit lähialueelta jotka ovat ylläolevassa intervallikartassa suhteessa * säveleen kolmosia (3)

E3|-----|-----|-----|-----|-----|-----|-----|-----|-----|-----|-----|-----|-----|-
B-|--*--|-----|-----|-----|--3--|-----|-----|-----|-----|-----|-----|-----|-----|-
G-|-----|-----|-----|-----|--*--|-----|-----|-----|-----|-----|-----|-----|-----|-
D-|-----|--3--|-----|-----|-----|-----|-----|-----|-----|-----|-----|-----|-----|-
A-|-----|-----|--*--|-----|-----|-----|-----|-----|-----|-----|-----|-----|-----|-
E3|-----|-----|-----|-----|-----|-----|-----|-----|-----|-----|-----|-----|-----|-

 
3) Samaan tapaan etsi 5 ja 6, kunnes sointurakenteen kaikki sävelet on mukana soinnussa.

E3|-----|-----|--5--|-----|--6--|-----|-----|-----|-----|-----|-----|-----|-----|-
B-|--*--|-----|-----|-----|--3--|-----|-----|-----|-----|-----|-----|-----|-----|-
G5|-----|--6--|-----|-----|--*--|-----|-----|-----|-----|-----|-----|-----|-----|-
D-|-----|--3--|-----|-----|--5--|-----|-----|-----|-----|-----|-----|-----|-----|-
A6|-----|-----|--*--|-----|-----|-----|-----|-----|-----|-----|-----|-----|-----|-
E3|-----|-----|--5--|-----|--6--|-----|-----|-----|-----|-----|-----|-----|-----|-

 
4) Etsi haluamasi sormitustapa siten että kaikki soinnun sävelet tulevat mukaan ainakin kerran. Perussävel on hyvä pitää alimpana.

E-|-----|-----|-----|-----|--6--|-----|-----|-----|-----|-----|-----|-----|-----|-
B-|-----|-----|-----|-----|--3--|-----|-----|-----|-----|-----|-----|-----|-----|-
G-|-----|-----|-----|-----|--*--|-----|-----|-----|-----|-----|-----|-----|-----|-
D-|-----|-----|-----|-----|--5--|-----|-----|-----|-----|-----|-----|-----|-----|-
A-|-----|-----|--*--|-----|-----|-----|-----|-----|-----|-----|-----|-----|-----|-
E-|-----|-----|-----|-----|-----|-----|-----|-----|-----|-----|-----|-----|-----|-

 
Jos pitäisi muodostaa esim. Cm6 niin edellisestä pitäisi vain laskea 3-säveltä puolisävelaskelen verran alaspäin:
 

E-|-----|-----|-----|-----|--6--|-----|-----|-----|-----|-----|-----|-----|-----|-
B-|-----|-----|-----|-b3--|-----|-----|-----|-----|-----|-----|-----|-----|-----|-
G-|-----|-----|-----|-----|--*--|-----|-----|-----|-----|-----|-----|-----|-----|-
D-|-----|-----|-----|-----|--5--|-----|-----|-----|-----|-----|-----|-----|-----|-
A-|-----|-----|--*--|-----|-----|-----|-----|-----|-----|-----|-----|-----|-----|-
E-|-----|-----|-----|-----|-----|-----|-----|-----|-----|-----|-----|-----|-----|-

 
Jos haluttaisiinkin muodostaa C6/E, niin tulos olisi esim. seuraava:
 

E-|-----|-----|-----|-----|--6--|-----|-----|-----|-----|-----|-----|-----|-----|-
B-|-----|-----|-----|-----|--3--|-----|-----|-----|-----|-----|-----|-----|-----|-
G-|-----|-----|-----|-----|--*--|-----|-----|-----|-----|-----|-----|-----|-----|-
D-|-----|-----|-----|-----|--5--|-----|-----|-----|-----|-----|-----|-----|-----|-
A-|-----|-----|--1--|-----|-----|-----|-----|-----|-----|-----|-----|-----|-----|-
E3|-----|-----|-----|-----|-----|-----|-----|-----|-----|-----|-----|-----|-----|-

 
Tablatuurina tämä C6/E olisi siis:

|---5---
|---5---
|---5---
|---5---
|---3---
|---0---

 
Toivottavasti tästä on jollekulle apua.
 
Jos haluaa valmiin vastauksen niin voi tarkistaa tuloksensa esim. täältä: http://chordfind.com/
 
If you can't dazzle them with your brilliance, baffle them with your bullshit.
Quu
28.05.2004 10:35:59
Kotisivu       Linkitä kirjoitukseen Tulosta  

http://www.all-guitar-chords.com/
Toivottavasti tuostakin on apua.
 
http://hevijammu.cjb.net Hinta: 420e/En tingi.
toxic
28.05.2004 13:40:42
      Linkitä kirjoitukseen Tulosta  

X5 1 5
 
Mä en tajua näistä sointujen muodostamisesta mitään, joten kysyn: Mitä noi 1 5 tarkoittaa tossa oikeella? Kerro.
 
Jos leivän päällä oleva voikerros on yhtä paksu kuin leipä, ja niiden päällä oleva makkara on yhtä paksu kuin ne kaksi yhteensä, silloin leivän paksuudella ei ole enää mitään väliä!
Pande
28.05.2004 15:11:56
Musiikkinäyte       Linkitä kirjoitukseen Tulosta  

Mä en tajua näistä sointujen muodostamisesta mitään, joten kysyn: Mitä noi 1 5 tarkoittaa tossa oikeella? Kerro.
 
Ne kuvaavat sävelten välisiä suhteita, intervalleja. Kukin sointu koostuu sävelistä joilla on tietty suhde toisiinsa.
 
Mutta tähän löytyy parhaiten apuva täältä: http://muusikoiden.net/keskustelu/threads.php?c=39
 
If you can't dazzle them with your brilliance, baffle them with your bullshit.
toxic
28.05.2004 20:11:46
      Linkitä kirjoitukseen Tulosta  

Ne kuvaavat sävelten välisiä suhteita, intervalleja. Kukin sointu koostuu sävelistä joilla on tietty suhde toisiinsa.
 
Mutta tähän löytyy parhaiten apuva täältä: http://muusikoiden.net/keskustelu/threads.php?c=39

 
Saat neljä plussaa ku laitoit ton linkin tohon. Muuten mä en ois tajunnu paskaakaan. Saat sittenkin 2 plussa.sdögtla.
 
Jos leivän päällä oleva voikerros on yhtä paksu kuin leipä, ja niiden päällä oleva makkara on yhtä paksu kuin ne kaksi yhteensä, silloin leivän paksuudella ei ole enää mitään väliä!
kikkomän
03.06.2004 23:28:23 (muokattu 09.04.2008 22:18:59)
Kotisivu       Linkitä kirjoitukseen Tulosta  

plussaa
 
aurinko paistaa ja veeetttä sattaa , taitaa tulla ARMAGEDDON!!
seventh son
07.06.2004 13:46:40 (muokattu 07.06.2004 13:47:19)
      Linkitä kirjoitukseen Tulosta  

mä en tajunnu yhtään mitään tästä topiikista.... on nimittäin itselläni ongelmia soinnuissa mutta eipä tämä auttanut minua yhtään... johtuu kai siitä että olen täysin aloittelija.
 
life is pain... so get used to it.
Rasvaton
16.06.2004 00:19:21
      Linkitä kirjoitukseen Tulosta  

Tuolla on kaikki soinnut ja selvästi komeella animaatiolla? tms.
http://www.swingers.viihde.org/swdoc/soinnut/sointu.htm
 
nopeasti laskettuna tasi ollla noin. 16 x 61 sointua tuolla eli 976 sointua tms.
 
toxic
16.06.2004 22:31:41
      Linkitä kirjoitukseen Tulosta  

mä en tajunnu yhtään mitään tästä topiikista.... on nimittäin itselläni ongelmia soinnuissa mutta eipä tämä auttanut minua yhtään... johtuu kai siitä että olen täysin aloittelija.
 
En tajunnut itsekkään paskaa, kunnes katsoin tarkemmin ja huomasin.. Tadaa. 7-kieltä. OERKEKEKHPGOÖaä...
 
Squeeze the nipple
Pande
16.06.2004 22:35:21
Musiikkinäyte       Linkitä kirjoitukseen Tulosta  

En tajunnut itsekkään paskaa, kunnes katsoin tarkemmin ja huomasin.. Tadaa. 7-kieltä. OERKEKEKHPGOÖaä...
 
Mitä merkitystä sillä on? 6 ylimmäistä kieltä on kuten 6-kielisessä kitarassa, alimman voi unohtaa kuten jo sanoin ylhäällä.
 
If you can't dazzle them with your brilliance, baffle them with your bullshit.
toxic
17.06.2004 08:17:50
      Linkitä kirjoitukseen Tulosta  

Mitä merkitystä sillä on? 6 ylimmäistä kieltä on kuten 6-kielisessä kitarassa, alimman voi unohtaa kuten jo sanoin ylhäällä.
 
Niin, mutta en aluksi huomannut että siinä on 7 kieltä (pitäis hommata silmälasit) ja toi oli ihan outo ku... No kyllä sä tajuut :D
 
Squeeze the nipple
Angus
17.06.2004 13:03:50
Musiikkinäyte       Linkitä kirjoitukseen Tulosta  

Hmmm ei kyllä vieläkaan aukea nuo soinnut mulle, saattaa olla kyllä vika korvien välissä, mutta...
 
Voisiko joku vaikka vähän selittää näitä perussointujen toimintaa, vaikkapa (mieluiten) AC/DC:n käyttämien sointujen avulla. Esim. mikä sointu on Highway To Hellin ensimmäinen sointu, joka menee:
 

|-------------|
|---2--2--2---|
|---2--2--2---|
|---2--2--2---|
|---0--0--0---|
|-------------|

 
Jossain lukee, että tuo on A5, mutta kun katselen tuolta täältä löytämästäni linkistä: http://www.swingers.viihde.org/swdoc/soinnut/sointu.htm, niin A5 tai mikään muu sen tapainen, kuten A#5, ei mene läheskään noin.
 
Let there be rock!
Pande
17.06.2004 14:25:31
Musiikkinäyte       Linkitä kirjoitukseen Tulosta  

Hmmm ei kyllä vieläkaan aukea nuo soinnut mulle, saattaa olla kyllä vika korvien välissä, mutta...
 
Voisiko joku vaikka vähän selittää näitä perussointujen toimintaa, vaikkapa (mieluiten) AC/DC:n käyttämien sointujen avulla. Esim. mikä sointu on Highway To Hellin ensimmäinen sointu, joka menee:
 

|-------------|
|---2--2--2---|
|---2--2--2---|
|---2--2--2---|
|---0--0--0---|
|-------------|

 
Jossain lukee, että tuo on A5, mutta kun katselen tuolta täältä löytämästäni linkistä: , niin A5 tai mikään muu sen tapainen, kuten A#5, ei mene läheskään noin.

 
Seon A-duuri. Sävelet:
 

|-------------|
|---2--2--2---| C# (3)
|---2--2--2---| A (1)
|---2--2--2---| E (5)
|---0--0--0---| A (1)
|-------------|

 
Katso tuota threadin aloitusviestiä ja sitä otelaudan kuvaa (intervallikuvaa). Katso sieltä A-kieleltä kohta jossa on * se vastaa tuota A-kielen nollaa (0) eli on soinnun perussävel (1).
 
Eli intervallikartassa näyttää tuo tältä (poistin alimman kielen hämäämästä):
 
-|--5--|-----|--6--|-
-|--9--|-----|--3--|-
-|-----|--7--|--*--|-
-|--4--|-----|--5--|-
-|--*--|-----|--9--|-
-|--5--|-----|--6--|-
 
Huomaat sointurakennelistasta että siellä on duurisoinnun (pelkkä X) kohdalla numerot 1,3 ja 5. Tuossa sun soinnussa on juuri nämä sävelet (kuten voit ylhäältä lukea) joten se on juuri tämä sointu.
 
Toivottavasti oli jotain apua..
 
If you can't dazzle them with your brilliance, baffle them with your bullshit.
Angus
17.06.2004 14:53:36 (muokattu 17.06.2004 14:54:31)
Musiikkinäyte       Linkitä kirjoitukseen Tulosta  

Wow, ymmärsin jopa tuon :)
 
Ihmeiden aika ei ole ohi.
 
Hmmm yksi kysymys on mielessäni pyörinyt jo pidempään, enkä ole koskaan oikein itseäni tyydyttävää vastausta siihen löytänyt. Eli, mitkä olisi sellaiset ihan perussoinnut jotka puolisen vuotta soittaneen kitaristin kannattaisi ehdottomasti ensimmäiseksi harjoitella. En ole koskaan näihin sointuihin enempää perehtynyt, monesti olen koittanut noita ominpäin pähkäillä, mutta en ole oikein tajunnut. Nyt sentään tajusin edes vähäsen.
 
Let there be rock!
Angus
17.06.2004 15:06:56
Musiikkinäyte       Linkitä kirjoitukseen Tulosta  

Hmmm kehtaakohan sitä vielä apua pyytää...
 
No jokatapauksessa, enpä taaskaan tajunnut enää mitään kun yritin miettiö mikä sointu(soinnut?) seuraavassa kohdassa on:
 

|-------------|
|---3--3--3---|
|---2--2--0---|
|---0--0--0---|
|---x--x--x---|
|---2--2--3---|

 
Jos tuon vielä tajuaisi, saattaisin onnistua hahmottamaan jopa joitain muitakin sointuja (yleisö kohahtaa yllätyksestä).
 
Let there be rock!
tattis
18.06.2004 12:05:02
      Linkitä kirjoitukseen Tulosta  

Hmmm kehtaakohan sitä vielä apua pyytää...
 
No jokatapauksessa, enpä taaskaan tajunnut enää mitään kun yritin miettiö mikä sointu(soinnut?) seuraavassa kohdassa on:
 

|-------------|
|---3--3--3---|
|---2--2--0---|
|---0--0--0---|
|---x--x--x---|
|---2--2--3---|

 
Jos tuon vielä tajuaisi, saattaisin onnistua hahmottamaan jopa joitain muitakin sointuja (yleisö kohahtaa yllätyksestä).

 
D/F# ja G
Ymmärtääkseni.
 
Tanssiminen on turhaa pyörimistä hyvän "tavaran" ympärillä.
vonBuhagen
30.06.2004 21:10:47
      Linkitä kirjoitukseen Tulosta  

no mitä mitä... sehän riittää mainiosti jos osaa duurit, seiskat ja mollit.
 
Klovnixx
02.07.2004 01:57:59 (muokattu 02.07.2004 02:02:54)
      Linkitä kirjoitukseen Tulosta  

Ei vaan hahmotu tämä sointujen muodostaminen pätkääkään.
Siis miten oikein katsotaan, että joidenkin sävelien intervalli on terssi eli kolme??
 
Tähän mennessä olen ymmärtänyt vain vitossointujen muodostamisen, niinkuin että mennään niinkuin duuriskaalaapitkin ja lasketaan viiteen ja lisätään terssialapuolelle, mutta ähäageag
taitaa olla jo aika myöhä....
 
Pande
02.07.2004 07:29:33 (muokattu 29.05.2006 13:03:20)
Musiikkinäyte       Linkitä kirjoitukseen Tulosta  

Tähän mennessä olen ymmärtänyt vain vitossointujen muodostamisen, niinkuin että mennään niinkuin duuriskaalaapitkin ja lasketaan viiteen ja lisätään terssialapuolelle, mutta ähäageag
taitaa olla jo aika myöhä....

 
Duurisoinnun saat esim. tehtyä myös siten että soitat duuriskaalaa alhaalta ylöspäin ja otat säveliksi ensimmäisen, kolmannen ja viidennen vastaantulevan sävelen.
Esimerkki:
 

 F-duuriskaala      Duurisointuun kuuluvat 
                    sävelet F-duuriskaalasta
-------------------|------------------------
-------------------|------------------------
-------------------|------------------------
---------------2-3-|-------3----------------
--------1--3-5-----|-----3------------------
--1-3-5------------|-1-5--------------------
  F G A Bb C D E F   F A C F
  1 2 3 4  5 6 7 1   1 3 5 1

 
Koska terssi (3, A) ja perussävel (1, F) ovat tässätapauksessa samalla kielellä, nostetaan terssiä oktaavi ylöspäin (etsitään lähin A joltain vapaalta kieleltä) ja sointu on valmis:
 

---------|---------------
---------|---------------
---2-----|----2----------
-------3-|----3----------
-----3---|----3----------
-1-------|----1----------
 F A C F   F-duurisointu
 1 3 5 1
 

 
Katso threadin aloituskirjoituksesta mitkä duuriskaalan sävelet otetaan mukaan muihin sointuihin. Merkintä 3b tarkoittaa sitä että otat sen kolmannen sävelen mutta alennat sitä puolisävelaskeleen (eli yhden nauhavälin, 2 -->1 eli C --> B jne.).
 
If you can't dazzle them with your brilliance, baffle them with your bullshit.
Klovnixx
02.07.2004 16:46:17
      Linkitä kirjoitukseen Tulosta  

ok, kiitos johan alkoi aukemaan :)
 
« edellinen sivu | seuraava sivu »
1 2 3 4 510 11 12 13 14

» Lisää uusi kirjoitus aiheeseen (Vaatii kirjautumisen)

» Kirjaudu sisään

Keskustelualueet «
Haku tästä aiheesta / Haku «
Säännöt «

Copyright ©1999-2016, Muusikoiden Net ry. Kaikki oikeudet pidätetään.
Palaute | Käyttöehdot | Rekisteriseloste | Netiketti | Mediakortti