Muusikoiden.net
03.12.2016
 

Kitarat: soittaminen »

Keskustelualueet | Lisää kirjoitus aiheeseen | HakuSäännöt & Ohjeet | FAQ | Kirjaudu sisään | Rekisteröidy

Aihe: Tänne eri musatyylien likkejä
1 2 3 4 5 6
sepesorsa
11.03.2007 10:11:49
      Linkitä kirjoitukseen Tulosta  

Niin tästä on jo varmaan threadeja eri muodossa, mutta ajattelin jos laittaisitte tänne likkejä, juoksutuksia jne. mitkä on omalla kohdalla kolahtanu ja toiminu.. Tyylillä ei ole niin väliä kaikki kelpaa.. Bluesista Neo-klassiseen janäinpoispäin?
 
Necromuru
11.03.2007 18:56:36
Musiikkinäyte       Linkitä kirjoitukseen Tulosta  


-----
-----
--5~-
-----
-----
-----

 
Toimii kaikessa.
 
Kitara on kuin piano: sitä soitetaan välillä ja niitä on eri merkkisiä.
Karipiirto
11.03.2007 19:04:25
Kotisivu       Linkitä kirjoitukseen Tulosta  

Lisää peruskauraa:-)
 
-------5--------5--------5--------
-----5--------5--------5-----8b----
-7b------7b-------7b------------
----------------------------------
---------------------------------
----------------------------------
 
Juup saa laittaa lisää kyllä näitä aina on ilo käyttää ja soveltaa ja niin edelleen:-)
 
Metalligenret ovat vain yhdentekevien bändien pätemisen tarvetta ja pohjimmiltaan kaikki se on vain heavy metallia.
calf
11.03.2007 19:06:57 (muokattu 11.03.2007 19:09:43)
Musiikkinäyte       Linkitä kirjoitukseen Tulosta  

E--13-10--------12-----12-8---------10---
H---------12-13----10--------10-12-----8- jne...
 
Ekat kuusi nuottia näyttää trioliparin idean. Tämä a-mollissa.
 
There are no wrong notes
Karipiirto
11.03.2007 19:19:50 (muokattu 11.03.2007 19:23:15)
Kotisivu       Linkitä kirjoitukseen Tulosta  

Tässäpä vielä yksi suosikkijuoksutuksistani. Löytyy muutamiltakin Maidenin sooloilta, mainittakoon vaikkapa Hallowed Be thy Name ;-)
 
-15-12-----12-------------------------------------------------------------
--------15-----15-12-15-12------12--------------------------------------
------------------------------14-----14-12-14-12-------12---------------
-----------------------------------------------------14-----14-12-14~--
----------------------------------------------------------------------------
----------------------------------------------------------------------------
 
Edit. pientä korjailua.
 
Metalligenret ovat vain yhdentekevien bändien pätemisen tarvetta ja pohjimmiltaan kaikki se on vain heavy metallia.
Juzpe
14.03.2007 19:58:46 (muokattu 14.03.2007 19:59:13)
Kotisivu Musiikkinäyte       Linkitä kirjoitukseen Tulosta  

Yksi omia suosikkejani:
 
E----------5-------------------5-------------------5--------------
B-------------8--5---------------8--5---------------8--5---8b10-
G-5-7-8-------------5-7--8---------------5-7-8------------------
D------------------------------------------------------------------
 
Trioleina ja piiiitkä bendi loppuun
 
Rusettiluistelusta anaaliseksiin - Suomen nuorison seksuaalikäyttäytymisen kehitys 40- luvulta nykypäivään.
eewo
14.03.2007 20:29:06 (muokattu 15.03.2007 17:22:40)
      Linkitä kirjoitukseen Tulosta  

e|--------12---------------------------------|
B|-15B~~---15-12--------------------------|
G|--------------------14B-14p12-----------|
D|---------------------------------h14~-----|
A|--------------------------------------------|
E|--------------------------------------------|
 
Aika perus blues-juttu
mm. Hendrixin Hey Joesta löytyy tämän tyyppisiä.
 
"The blues ain't about feeling better. It's about making other people feel worse." -Bleeding Gums Murphy
KTR
18.03.2007 17:37:43 (muokattu 18.03.2007 17:39:58)
      Linkitä kirjoitukseen Tulosta  

E||--------------12--------||
B||----------12------15~---||
G||--12h13-----------------||
D||------------------------||
A||------------------------||
E||------------------------||

 
Soita kermaisella soundilla ihan vitun hitaasti.
 

E||--15-12-------------------------------------------|
B||--------15-12-------15-12-------------------------|
G||--------------14-12-------14-12-------14-12-------|
D||--------------------------------14-12-------14-12-|
A||--------------------------------------------------|
E||--------------------------------------------------|
 
                                      
------------------------------------||
------------------------------------||
------------------------------------||
--------14-12-----------------------||
--14-12-------14-12-----------------||
--------------------15-14-12--------||

 
Pikkaa joka nuotti ja soita vitun nopeesti kamalalla sieluttomalla hevisäröllä.
ushimir
21.03.2007 18:05:24
Kotisivu       Linkitä kirjoitukseen Tulosta  

Mulla on tullu likkejä tehtyy paljonkin käytän nääs improvisoinnissa tässä pari:
 
--------------------------------------------------------------
--------------------------------------------------------------
-------------------------------8-8-8-8-8p7p5---5-7--------
-----------------7-5------7b-------------------7-----5-7~--
---------7b6-5------7-5-------------------------------------
--5-8-5------------------------------------------------------
 
bluesia kansalle ! (mitä tarkoittaa thy siis "hallowed by THY name" laittakaa sillee ettei häiritse topikkii likin yhteydessä PLZ)=)
 
Karipiirto
21.03.2007 19:52:40 (muokattu 26.03.2007 17:18:03)
Kotisivu       Linkitä kirjoitukseen Tulosta  

Hallowed Be thy name. On kirjoitettu ihan oikein ja tarkoittaa että "pyhitetty olkoon sinun nimesi";-)
 
Edit. Lisäilin lainaukset kun nyt muistin. ;)
 
Metalligenret ovat vain yhdentekevien bändien pätemisen tarvetta ja pohjimmiltaan kaikki se on vain heavy metallia.
Sharr
26.03.2007 17:15:04 (muokattu 26.03.2007 17:18:45)
      Linkitä kirjoitukseen Tulosta  

No tässä on jotain
 
E|------------------------------------------------------------------12---12--|
B|------------------------------------------------12---12-14-12-14---14-----|
G|------------------------------12---12-14-12-14---14-----------------------|
D|------------12---12-14-12-14---14-----------------------------------------|
A|--14-12-14----14-----------------------------------------------------------|
E|----------------------------------------------------------------------------|
 
E|------------12-----------------12---------------------
B|---------12---15-12--------12----15-12---------------
G|--14b16-------------14b16---------------------------
D|--------------------------------------------------------
A|--------------------------------------------------------
E|--------------------------------------------------------
 
ushimir
31.03.2007 15:34:55
Kotisivu       Linkitä kirjoitukseen Tulosta  

Tässä on nyt kitara kädessä ja laitan taas pari ja ne on tässä:
 
----5-7--5-7--5-8-7-5------
--5-----5----5---------------
------------------------------
------------------------------
------------------------------
------------------------------
 
--8-7-5--------10-8-7----------------
--------8-7-5-----------10-8-7-------
----------------------------------------
----------------------------------------
----------------------------------------
----------------------------------------
 
Käy lähes kaikkialla pari lyhyttä ja helppoo.
 
Jzci
31.03.2007 20:46:27
Kotisivu Musiikkinäyte       Linkitä kirjoitukseen Tulosta  

"Näin kuulostat Alexi Laiholta" likki.
 

 
E|--15-12-14-15-14-12---------------------------------------------------------------|
B|--------------------15-14-12-14-15-14-12------------------------------------------|
G|-----------------------------------------15-14-12-14-15-14-12-14-12---------------|
D|--------------------------------------------------------------------14-12-14~~----|
A|----------------------------------------------------------------------------------|
E|----------------------------------------------------------------------------------|

 
Soita 16-osina tempoon 180-200bpm
 
Rokkia: TÄÄLTÄ Melodista heviä: TÄÄLTÄ: Kitarasankarointia: TÄÄLTÄ
Blodapelsin
03.04.2007 15:13:39
      Linkitä kirjoitukseen Tulosta  

E||--------------12--------||
B||----------12------15~---||
G||--12h13-----------------||
D||------------------------||
A||------------------------||
E||------------------------||

 
Soita kermaisella soundilla ihan vitun hitaasti.

 
Paitsi että Panteran Psycho holiday alkaa juuri tollaittis.. Oktaavin matalempaa kylläkin
 
And I know it's on your mind We've been drinking on the wine That we drank from the serpents vine Now we live in another time We could live together"
Chester
09.04.2007 22:24:36 (muokattu 09.04.2007 22:28:49)
      Linkitä kirjoitukseen Tulosta  


 
E|---------------------------------------------------------------------------------|
B|--13-12-13-15---15b~~~---15-12-------------------------------------------|
G|---------------------------------------14-12-12h14-14b-14p12~----------------|
D|---------------------------------------------------------------------12/14~-------|
A|---------------------------------------------------------------------------------|
E|---------------------------------------------------------------------------------|

 
I've got the blues today
 

 
E|---------------------5h8-8b~-5---10/8---5h8-------------------------------------|
B|---8-5------8b~--------------------------------8-5----------------------------------|
G|--------7-5------------------------------------------7-5-------------------------------|
D|-----------------------------------------------------------7-5-------------------------|
A|----------------------------------------------------------------7-6-5-5h6--------------|
E|-----------------------------------------------------------------------------5/8~~----|

 
Yeah I've got the blues today
 

 
E|-------------------------------------------------------------------------------|
B|----------------------------------------------15b-15b-15b-------------------|
G|-------------------------------------------------------------------------------|
D|--------------------5-7--------------------------------------------------------|
A|--7-5-7-7b~--7-5------6-5----------------------------------------------------|
E|------------------------------5/8B~---------------------------------------------|

 
Cause my woman saw no way
 

 
E|---------------15---17p15-15b--12-12h15------------------------------------|
B|---15br-12~-------------------------------------------------------------------|
G|---------------------------------------------------------------------------------|
D|-----------------------------------------------------------------------------------|
A|------------------------------------------------------------------------------------|
E|---------------------------------------------------------------------------|

 
She could love me
 

 
E|----------------------------------------------------------------------------------|
B|--17br~--15-12-15b-12-----------15/17--17tr18--17-----------------------------|
G|----------------------------12---------------------------------------------------|
D|------------------------------------------------------------------------------------|
A|------------------------------------------------------------------------------------|
E|------------------------------------------------------------------------------------|

 
anymore
 
Aina ei voi voittaa, ei edes joka kerta
InYourFace90
15.04.2007 17:58:39
      Linkitä kirjoitukseen Tulosta  

"Näin kuullostat Zakk Wyldeltä" likki.
 
E|--6-3-6-3------6-3-6-3-------6-3-6-3---------------------------------|
B|-----------6-3-----------6-3------------6-3----------------------------|
G|-----------------------------------------------8~ (P.H.)----------------|
D|--------------------------------------------------------------------------|
A|--------------------------------------------------------------------------|
E|--------------------------------------------------------------------------|
 
Toi nopeasti ja komia pinch loppuun.
 
Up The Irons!
Karipiirto
15.04.2007 18:43:52
Kotisivu       Linkitä kirjoitukseen Tulosta  

"Näin kuullostat Zakk Wyldeltä" likki.

E|--6-3-6-3------6-3-6-3-------6-3-6-3---------------------------------|
B|-----------6-3-----------6-3------------6-3----------------------------|
G|-----------------------------------------------8~ (P.H.)----------------|
D|--------------------------------------------------------------------------|
A|--------------------------------------------------------------------------|
E|--------------------------------------------------------------------------|

Toi nopeasti ja komia pinch loppuun.

 
And rimember, ulveis ulveis ulveis juus altenetbiking! Atervais ai vil stränkel juu. :D
 
"There's no roll! They forgot the roll and they only kept the rock. The roll's the whole damn thing dude, the rock is nothing, deal with it, the roll is king. Unfortunately most cats don't get behind the roll." -Keith Richards
InYourFace90
16.04.2007 18:59:08
      Linkitä kirjoitukseen Tulosta  

And rimember, ulveis ulveis ulveis juus altenetbiking! Atervais ai vil stränkel juu. :D
 
Juu niin :D Tuohan on siitä videosta.
 
Up The Irons!
sepesorsa
23.04.2007 11:34:47
      Linkitä kirjoitukseen Tulosta  

hei mistä biisistä toi chesterin pistämä pätkä on?:D
 
Chester
28.04.2007 16:19:00
      Linkitä kirjoitukseen Tulosta  

hei mistä biisistä toi chesterin pistämä pätkä on?:D
 
Lähinnä BB Kingiä ja muita blueskuuluisuksia lainailen tuossa silleen sivuten. Oma biisihän tuo on, mutta lähinnä sellainen kunnianosoitus bluesmiehille. Ei siinä kauheasti omaa ole.
 
Aina ei voi voittaa, ei edes joka kerta
« edellinen sivu | seuraava sivu »
1 2 3 4 5 6

» Lisää uusi kirjoitus aiheeseen (Vaatii kirjautumisen)

» Kirjaudu sisään

Keskustelualueet «
Haku tästä aiheesta / Haku «
Säännöt «

Copyright ©1999-2016, Muusikoiden Net ry. Kaikki oikeudet pidätetään.
Palaute | Käyttöehdot | Rekisteriseloste | Netiketti | Mediakortti