Muusikoiden.net
07.12.2016
 

Etusivulle
ArtikkelitHakuOmat artikkelit
Palaute

02.04.2008: Slash


Aluksi
Tämä artikkeli on tehty pääasiassa aloittelijoille, kokeneemmille soittajille se tuskin tarjoaa mitään uutta.
Juttu voi kuitenkin sisältää joillekin aloittelijoille vielä tuntemattomia termejä. Siispä kannattaa lukea seuraavat F.A.Q:t
Tabulatuureista soitto
Soittotekniikoita ja muita kikkoja
Huomioi, että vaikka et olisikaan varsinaisesti Slash-fani, esitellään tässä artikkelissa yleisestikin hyödyllisiä soittotekniikoita.
Ääninäytteet sijaitsevat väliaikaisesti mikseri.netissä, tarjoa kotisivutilaa pikaviestitse. Korvaan huonommimmin onnistuneet näytteet myöhemmin.
Huom! Slash soittaa Eb- vireessä. Tabulatuurit on merkitty Eb-vireeseen ja myös ääninäytteet on soitettu Eb- vireessä.

Soolosoitto

Skaalat
Slash käyttää sooloissaan useimmiten pentatonista mollia ja harmonista mollia, tästä esimerkkinä \"Sweet Child o\' mine\".
Sweet Child O\'mine


e|---------------------------------------------
B|--15b17(15)p12-------------------------------
G|---------------14b15(14)p12---11h12p11-------
D|-----------------------------------------14~-
A|---------------------------------------------
E|---------------------------------------------

Pedal steel-bend, yksi monista Slashin käyttämistä kikoista. Tekniikalla matkitaan slidekitaran soittoa, eli venytä alempi kieli ja soita ylemmällä kielellä säveliä samalla pitäen alempaa kieltä venytyksessä:
Paradise City

e|------5-8------------------------------
B|--8b------8-(8)p5-8-----5-8-------------
G|---------------------7b------7-(7)p5---
D|------------------------------------7--
A|---------------------------------------
E|---------------------------------------

e|-------------------------
B|-------------------------
G|-------------------------
D|-7p5---------------------
A|-----7-6-5-------5b6-----
E|-----------8-5-8-----5~--

Slash käyttää myös duuripentatonista, esimerkkinä jälleen Paradise city:
-,,-

e|---------------10----------------------
B|-----8-8-8--------10b--10b(10)p8-------
G|-7h9-------9p7----------------------7--
D|------------------------------------------
A|------------------------------------------
E|------------------------------------------
Hän käyttää myös miksolyydistä moodia, tässä pätkä Patiencen alkua:
Patience

e|---------7-8-9-10------------
B|-10b(12)----------10b(12)-8--
G:-----------------------------
D:-----------------------------
A:-----------------------------
E:-----------------------------

Tekniikat
Slashin soittotekniikka muistuttaa monia vanhoja rock ja bluessoittajia. Hänellä on melko leveä ja nopea vibrato ja hän käyttää venytyksiä paljon. Yksi hänen tunnistettavista piirteistään soitossa ovat nopeat, pentatoniset blueslikit, usein monta samaa likkiä sarjassa:
Sweet Child O\'mine

W/wah
e|-------12----------------12--------------
B|-15b17----15p12--------------15p12-jne.--
G|------------------14b16------------------
D|-----------------------------------------
A|-----------------------------------------
E|-----------------------------------------

Toinen yleinen hänen käyttämänsä tekniikka on ns. double stop, eli 2 kielen näppäily ja usein myös venyttäminen tai liu'uttaminen yhtäaikaa:
Nightrain

e|-------------------
B|-8---8---8---------
G|-7b9-7b9-7b9(7)p5--
D|-------------------
A|-------------------
E|-------------------

Welcome to the jungle

e|------------------------
B|--------------12----12--
G|-12/13--12-12-12-12-12--
D|-11/12--13-13----13-----
A|------------------------
E|------------------------

Hän ei yleensä pikkaa nopeissa kohdissa kaikkia nuotteja, vaan hän soittaa ne legatona:
My Michelle

e|-------------------------------
B|-------------------------------
G|-4p2p0--------4p2p0--------jne.
D|-------4p2p0---------4p2p0-----
A|-------------------------------
E|-------------------------------

Komppisoitto
Slashin komppisoitto muistuttaa 70-luvun hevibändien kitaristejä, kuten Eddie Van Haleniä ja Jimmy Pagea. Hän käyttää vauhdikkaissa kappaleissa voimasointuja ja palm-mutingia, joka tuo selkeyttä soittoon säröillä. Hän myös rämpyttää otelautakädellä kuoletettuja kieliä rytmikkäästi(kuuntele ääninäyte):
Welcome to the jungle

4x
e|----------------------------
b|----------------------------
g|-2-----2-------------------
d|-2-----2-2-2--------------
a|-0-----0-0-0--------------
e|-----3---------3-2-0------
4x
e|---------------------
b|---------------------
g|---------------------
d|-9-----9-9-9---------
a|-7-----7-7-7---------
e|----10-------10-9-7--

Slash käyttää myös avoimia sointuja:
-,,-

e|-2---3---2-3p2---3--8p7---
B|-3---3---3-3--2--3--8--8--
G|-2---0---2-2--3--0--7--7--
D|-0---0---0-------0--------
A|--------------------------
E|-----3-----------2--------

Rauhallisissa kohdissa ja kappaleissa hän soittaa usein avoimia sointuja arpeggioina:
Sweet Child O\'mine
e|-------0------2-----2h3p2p0-------------0---------------
B|---3------3-----3---3--------------3--------3---3--------
G|-----2------2-----2-2---------0------0------------0---0--
D|-0-------------------------------2-----2-----------------
A|----------------------------3-----------------3-----3----
E|---------------------------------------------------------

Slidekikkoja
Kappaleessa \"Welcome to the jungle\" Slash käyttää slideputkea saaden aikaan \"viidakkomaisen\" tunnelman:
Welcome to the jungle

e|-24-22-20-19--
B|--------------
G|--------------
D|--------------
A|--------------
E|--------------

-,,-

e|-----
B|-----
G|-9/-- tallaan asti
D|-9/--
A|-----
E|-----

-,,-

e|-----
B|-7/-- tallaan asti
G|-----
D|-----
A|-----
E|-----

Soittokamat

Vahvistimet:
Marshallin putkinuppeja: 6 JCM SLASH(sama kuin 2555), kaksi säröille, kaksi puhtaille (6550 putket) ja talkboxille kaksi(toinen varalla).

eq-asetukset säröillä: precense 7; bass 7; mid 4.5 ja treble 7

puhtailla: presence 0; bass 9; mid 3; ja treble 5 1/2

Ampeg SVTMP
Vox AC30
Fenderin pieniä putkicomboja
Kaappeina hänellä on Marshallin 4x12 Celestion Vintage 30 kaiuttimilla

Kitarat
Les Pauleja,mm. käsintehty 59\' kopio(ei Gibson), Gibson signature, 1987 standard, Goldtop .jne.
B.C. Rich Mockingbird
B.C. Rich Bich
Guild Signature (kaksikaulainen 6/12. Ylempi kaula elektroakustinen)
Gibson EDS 1275(myöskin kaksikaulainen)

Muita kitaroita(harvemmin käytössä)
Gibson Flying V
Gibson Explorer
Ernie Ball/Music Man Silhouette
Fender Telecaster
Fender Stratocaster
Gibson Melody Maker
Gibson SG
Travis Bean

Akustiset
Guild 12 kielinen
Gibson J-100
Martin D-28
Ramirez-nailonkielinen
Dobro

Slash käyttää Ernie Ballin Power slinky .011-.048 -kieliä ja Dunlopin 1.14mm plektroja.

Efektit:
(footswitch) Dunlopin räkkiwah, MXR 10-kaistainen EQ, Boss DD-3 delay, Yamaha SPX 900- multiefekti,
DBX 166- kompressori, Dunlop Heil talkbox ja Rocktron Hush- noisegate.

Huomioita:
Slashin mieliasetuksia sooloihin ovat kaulamikki tone nollassa ja EQ-pedaalista middle- ja trebleboostia.
Spx- multiefektiä hän käyttää vain puhtailla soundeilla. Useimmissa kitaroissaan hänellä on Seymour Duncanin Alnico II pro- mikit ja Fishman Powerbridge- piezotalla.

Kirjoittanut friteerattu peruna 03.12.2006

            160×152  -  6 kt.


Arvostelu

4,24,24,24,24,2    (24 arvostelijaa)
Kirjaudu sisään arvostellaksesi!


Kommentit

friteerattu peruna: Anna parannusehdotuksia ja perustele, jos annat plussan.
Juzpe: Tekniikkapuolelta puuttuu minusta yksi tärkeimmistä Slashin komppaustekniikoista, eli otelautakädellä tehty kuoletus
Tasapaino: Hyvät ääninäytteet. Siitä plussa.
Juzpe: niin siis... muuten ihan maistuva, tosin himean lyhyt ;P katsaus Slashin soitantaan.
friteerattu peruna: "Hän myös rämpyttää OTELAUTAKÄDELLÄ kuoletettuja kieliä rytmikkäästi". nyt on korjattu, sitä on vain hiukan hankala merkitä tabehin
friteerattu peruna: Huomaa myös, että artikkeli saattaa näyttää eri selaimilla erilaisilta.
Route 66: tuo "Rauhallisissa kohdissa ja kappaleissa hän soittaa usein avoimia sointuja arpeggioina:" ei näy 1024*768 resoluutiolla kunnolla
friteerattu peruna: Totta. Vanhalla koneella on näin. Jos tabulatuuri kiinnostaa enemmän, voin lähettää sen pikaviestinä.
friteerattu peruna: Toi Sweet child- pätkä näkyy kunnollisena kun kattoo tulostettavaa versiota
kalleboy: ainakin gnr-aikoina slashin vahvistimen eq särölle oli presence:8 B:7 M:7 T:4½. Ja soittonäytteet sais olla tarkemmin soitettuja. Muuten hyvä artikkeli :) slash rokkaa!
Kickman: slash käytti myös B.C Richin mockinbirdii
loxd: oikein hyvä artikkeli minusta! tämä on auttanut minua paljon kitaristiksi kehittymisessä! jaktakaa samaan malliin
UKKOMIES: Virhe! Welcome to the junglen kommpauksessa mennyt vitoset väärte päin :) muuten loistava artikkeli!
Cyanideish: Nykyisinhän Slash käyttää sitä omaa signature wahiaan

Yhteensä 14 kommenttia. Lisää kommentti!

Artikkelit: Soittaminen

Tulostettava versio

Tulostettava version ilman kuvia

Lähetä pikaviesti kirjoittajalle

Hosted by Nebula.fi

 

Copyright ©1999-2016, Muusikoiden Net ry. Kaikki oikeudet pidätetään.  
Käyttöehdot | Rekisteriseloste | Netiketti | Mediakortti