Muusikoiden.net
06.12.2016
OGRE | Klikkaa tästä lisätietoa ja jälleenmyyjät 

Kitarat: soittaminen »

Keskustelualueet | Lisää kirjoitus aiheeseen | HakuSäännöt & Ohjeet | FAQ | Kirjaudu sisään | Rekisteröidy

Aihe: Sweep Picking
1 2 3 4 526 27 28 29 30
toxic
30.01.2004 21:53:39 (muokattu 22.04.2013 16:50:49)
      Linkitä kirjoitukseen Tulosta  

...Ja economy picking.
-----------------Sweep Picking -------------------
 
Sweep picking tekniikkaa koostuu nuottien pikkaamisesta järjestyksessä yhdellä oikean käden liikkeellä, sekä vaihtamalla käden suuntaa niin vähän kuin on mahdollista. Päinvastoin kuin alternate pickingissä, jossa vaihdat suuntaa joka kerta, kun pikkaat. Economy Picking on käytännössä alternaten ja sweepin yhdistämistä, siitä lisää alempana.
 

----D---D-----D----D----------U----U---D
 
|-----------------15-p--12------------------|  
|------------14--------------13-------------|  
|-------13------------------------14--------|  x n 
|--12----------------------------------15---|  
|---------------------------------------------|  
|---------------------------------------------|  

 
D: Downstroke, eli kielen pikkaaminen alaspäin.
U: Upstroke, kielen pikkaaminen ylöspäin.
 
Yllä oleva sweeppi on hyvä tapa kokeilla/harjoitella tekniikkaa. On tärkeää saada jokainen nuotti soimaan tarkasti ja pysähtymään heti iskun jälkeen. Jokainen nuotti täytyy dempata ennen kuin pikkaat seuraavan. Ylöspäin sweepatessa vasen käsi demppaa soitetut kielet, tämä onnistuu nostamalla sormea vain sen verran että kieli lakkaa soimasta. Alaspäin sweepatessa oikealla kädellä dempataan kieli iskun jälkeen. Oikean käden liikkeen sulavuus on tärkeää, plektran ei kuulu pysähtyä jokaisen kielen välissä vaan "liukua" kieleltä toiselle.
 

---D--U--D--D-D--D---D-----------U--U--U--U--D--U-
 
|--------------------7-h-11-p7--------------------|  
|-----------------7--------------7------------------| 
|--------------8--------------------8---------------|  
|-----------9--------------------------9------------| 
|-----6--9--------------------------------9--6-----|  
|--7---------------------------------------------7--| 

 

------------------------------------------------
------5-7----------5--7-----------5-7--------
----5------5----7--------5-----7-------5------
--7-----------7-------------7------------------
------------------------------------------------
------------------------------------------------

 
Tekniikan hiominen vie paljon aikaa ja sitä ei todellakaan opita päivässä tai parissa, joten ei kannata luovuttaa jos tuloksia ei ala näkyä jo ensimmäisen 3 minuutin harjoittelun jälkeen. Harjoitellessa kannattaa kiinnittää jatkuvasti huomiota tekniikkaan, sillä kehitystä ei tapahdu (tai sitten tapahtuu, mutta huonompaan suuntaan) vaikka kuinka harjoittelisi kuvioiden soittamista jos tekniikka on jatkuvasti väärä. Varsinkin hitaasti soittaessa oikea käsi alkaa helposti töksähtelemään ja juuri sitä pitää välttää.
 
Omien sweeppien keksiminen/soittaminen on todella hyvää treeniä. Helppo tapa keksiä hyvältä kuulostavia rykäisyjä on käyttää sointuja, jotka sitten soitetaan sweeppaamalla. Esimerkiksi Em:
 
I--------------------12h15h12
I-----------------12-------
I--------------12--------
I-----------14---------
I--------14---------
I--12h15-------------


Ilman vahvistinta / puhtaalla kanavalla harjoittelua kannattaa myös hyödyntää, sillä kunnon mättösäröillä soittaessa ei välttämättä huomaa joitain virheitä mitä soittaessa tekee. Esimerkiksi kieli joka jää vahingossa pikkaamatta, saattaakin säröjen kanssa soittaessa kuulostaa lähes normaalilta. Tällainen olisi hyvä huomata ajoissa, ettei vahingossa harjoittele "väärää tekniikkaa".
 
-------------------Economy picking-------------------
 
Economy pickingissä yhdistetään sweeppaaminen tavallisen soittamisen sekaan. Käytännössä tämä tarkoittaa sitä, että oikealla kädellä pyritään soittamaan kieleltä toiselle siirryttäessä aina samaan suuntaan:
 

---D--U--D--D--U--D--D--U--D--D--D--U--D--D
 
|-----------------------------------------5--|  
|--------------------------------5--7--9----|  
|-----------------------------7--------------|  
|--------------------5--7--9----------------|   
|-----------5--7--9-------------------------|  
|--5--7--8----------------------------------|  

 
Tässä vielä todella hyvä sivu, jossa on harjoituksia joiden mukana voi tilutella:
 
http://martingoulding.com/lessons/sweeping/
 
Bäy?
 
"What the hell is that, that's an E"
Herra Rapu
04.02.2004 10:40:51 (muokattu 04.02.2004 14:19:41)
Musiikkinäyte       Linkitä kirjoitukseen Tulosta  

Tässä hieman economy pickingiä ja pentatoniseen molliin sovellettuna.
 

E-molli pentatoninen
 
|---------------------------10-12-15-10---------------------------|
|------------------------12-------------12------------------------|
|----------------9-12-14-------------------14-12-9----------------|
|-------------12-----------------------------------12-------------|
|----10-12-14-----------------------------------------14-12-10----|
|-12-----------------------------------------------------------12-|
 
ÄÄNINÄYTE: http://koti.mbnet.fi/mrcrab/e1.mp3
 
Ideaa voi sitten jalostaa hieman eteenpäin ja siirtyä eri asemiin.
 
Esim näin:
 
|-------------------------------12-15-17-12-------------------------------|
|----------------------------15-------------15----------------------------|
|-------------------12-14-16-------------------16-14-12-------------------|
|----------------14-------------------------------------14----------------|
|-------12-14-17-------------------------------------------17-14-12-------|
|-12-15-------------------------------------------------------------15-12-|
 
ÄÄNINÄYTE: http://koti.mbnet.fi/mrcrab/e2.mp3
 
Tai korvaamalla E-molli pentatonisen kvartti (4) bluesnuotilla (b5)
 
|---------------------------10-12-15-10---------------------------|
|------------------------12-------------12------------------------|
|----------------9-12-15-------------------15-12-9----------------|
|-------------12-----------------------------------12-------------|
|----10-13-14-----------------------------------------14-13-10----|
|-12-----------------------------------------------------------12-|
 
|-------------------------------12-15-17-12-------------------------------|
|----------------------------15-------------15----------------------------|
|-------------------12-15-16-------------------16-15-12-------------------|
|----------------14-------------------------------------14----------------|
|-------13-14-17-------------------------------------------17-14-13-------|
|-12-15-------------------------------------------------------------15-12-|
 

Siitä vaan sitten soveltamaan eri asteikoihin ja asemiin.
 
Paino ei ole mikään ongelma.
† FAT = MOTION †
Herra Rapu
04.02.2004 10:52:15 (muokattu 04.02.2004 14:24:58)
Musiikkinäyte       Linkitä kirjoitukseen Tulosta  

Ja vielä hiukan lisää..
 
Äskeistä esimerkkiä hieman muuttamalla saadaan lyydisen dominantin "pentatoninen" (viisisävelinen) versio.
 
Lyydinen dominantti: 1 2 3 #4 5 6 b7
Pentatoninen lyydinen dominantti: 1 3 #4 5 b7
 
Tipautetaan sekunti (2) ja seksti (6) pois eli samaan tyyliin kun tehdään luonnollisesta mollista pentatoninen molli.
 
Luonnollinen molli: 1 2 b3 4 5 b6 b7
Pentatoninen molli: 1 b3 4 5 b7 (tipautetaan sekunti (2) ja pieni seksti (b6) pois)

 
E-pentatoninen lyydinen dominantti:

|-------------------------------12-16-18-12-------------------------------|
|----------------------------15-------------15----------------------------|
|-------------------13-15-16-------------------16-15-13-------------------|
|----------------14-------------------------------------14----------------|
|-------13-14-17-------------------------------------------17-14-13-------|
|-12-16-------------------------------------------------------------16-12-|

ÄÄNINÄYTE: http://koti.mbnet.fi/mrcrab/e4.mp3
 
Saman homman voi tehdä myös miksolyydiselle.
 
Miksolyydinen: 1 2 3 4 5 6 b7
Pentatoninen miksolyydinen: 1 3 4 5 b7
 

E-pentatoninen miksolyydinen:
 
|-------------------------------12-16-17-12-------------------------------|
|----------------------------15-------------15----------------------------|
|-------------------13-14-16-------------------16-14-13-------------------|
|----------------14-------------------------------------14----------------|
|-------12-14-17-------------------------------------------17-14-12-------|
|-12-16-------------------------------------------------------------16-12-|

ÄÄNINÄYTE: http://koti.mbnet.fi/mrcrab/e3.mp3
 
EDITTIÄ..Lisäsin pari ääninäytettä tähän viestiin ja edelliseen. Kaikissa näytteissä tempo on 100 bpm.
 
Paino ei ole mikään ongelma.
† FAT = MOTION †
Herra Rapu
04.02.2004 17:37:04 (muokattu 23.12.2004 11:00:04)
Musiikkinäyte       Linkitä kirjoitukseen Tulosta  

Näitä sweep-juttuja näyttää löytyvän reilusti omista arkistoista, joten tässä ois muutama lisää.
 
Ekassa esimerkissä on käyty koko E-molliskaalan kuutossoinnut läpi ja toisessa seiskasoinnut. Tarkoittaa sitä, että pohjalla on normaalit kolmisoinnut joihin on lisätty pieni seksti (b6) tai suuri seksti (6). Seiskasoinnuissa on taas lisätty pieni septimi (b7) tai suuri septimi (7).
 
Em = 1 b3 5
Em(b6) = 1 b3 5 b6
Em7 = 1 b3 5 b7
jne.
 
1. 6-arpeggiot || Em(b6) D6 C6 Bm(b6) | Am6 G6 F#m(b5,b6) Em(b6) ||
 
2. 7-arpeggiot || Em7 D7 Cmaj7 Bm7 | Am7 Gmaj7 F#m7(b5) Em7 ||
 
Nuo alla olevat kuviot on jaettu kolmeen, eli kannattaa mielellään soittaa kolmen nuotin ryhmissä tai kuuden nuotin ryhmissä. Siis kolme tai kuusi nuottia metronomin iskulle.
 
Plektraniskut molemmissa kuvioissa: ylös-ylös-ylös-alas-alas-alas

1. 6-arpeggiot
 
|-19-------------15-17-------------14-15-------------12-14-------------10-|
|----17-------17-------15-------15-------13-------13-------12-------12----|
|-------16-17-------------14-16-------------12-14-------------11-12-------|
|-------------------------------------------------------------------------|
|-------------------------------------------------------------------------|
|-------------------------------------------------------------------------|
 
|-12------------8-10---------7-8---------5-7---------3-|
|----10------10------8-----8-----7-----7-----5-----5---|
|-------9-11-----------7-9---------5-7---------4-5-----|
|------------------------------------------------------|
|------------------------------------------------------|
|------------------------------------------------------|
 
2. 7-arpeggiot
 
|-19-------------15-17-------------14-15-------------12-14-------------10-|
|----17-------17-------15-------15-------13-------13-------12-------12----|
|-------16-19-------------14-17-------------12-16-------------11-14-------|
|-------------------------------------------------------------------------|
|-------------------------------------------------------------------------|
|-------------------------------------------------------------------------|
 
|-12------------8-10----------7-8---------5-7---------3-|
|----10------10------8------8-----7-----7-----5-----5---|
|-------9-12-----------7-11---------5-9---------4-7-----|
|-------------------------------------------------------|
|-------------------------------------------------------|
|-------------------------------------------------------|

 
Ääninäytteet tulee ehkä?
 
Paino ei ole mikään ongelma.
† FAT = MOTION †
Leatherman
05.02.2004 20:50:33
      Linkitä kirjoitukseen Tulosta  

Economy picking on kieltämättä aika HÄRSKIÄ, meni jopa itsellänikin kotvanen sen opetteluun aikanaan enkä vieläkään osaa kuin hitaasti kaavoja ylös alas sillä. Onkos joku keksinyt sille ihan hyötykäyttöä? Yleensä heitän vastaavat paikat täppingiksi mieluummin.
 
Kannattaa muuten opetella vastaavassa sweepparoinnissa heti soittamaan hammer-on täppäämällä, näyttää huomattavasti coolimmalta ja saat enemmän ystäviä, naisia, menestystä ja vaikutusvaltaa.
Nimim.Kokemusta on!
 
|--------------------7-h-11-p7--------------------|
|-----------------7--------------7------------------|
|--------------8--------------------8---------------|
|-----------9--------------------------9------------|
|-----6--9--------------------------------9--6-----|
|--7---------------------------------------------7--|
 
Pitsa on kyllä hyvää -Jari
Herra Rapu
05.02.2004 21:42:03
Musiikkinäyte       Linkitä kirjoitukseen Tulosta  

Economy picking on kieltämättä aika HÄRSKIÄ, meni jopa itsellänikin kotvanen sen opetteluun aikanaan enkä vieläkään osaa kuin hitaasti kaavoja ylös alas sillä. Onkos joku keksinyt sille ihan hyötykäyttöä? Yleensä heitän vastaavat paikat täppingiksi mieluummin.

 
Eiköhän tuo economy picking ole tekniikka muiden joukossa. Esim. ainakin Gambale, Friedman ja Stochelo Rosenberg on havainneet sen hyödylliseksi.
 
Paino ei ole mikään ongelma.
† FAT = MOTION †
KanZuu
06.02.2004 14:45:56 (muokattu 09.02.2004 22:04:32)
      Linkitä kirjoitukseen Tulosta  

Voisiko vielä laittaa vaikka numeroilla sormet tuonne noitten sweeppien päälle? Etten vaan taas ala töppäilemään omilla (huonoilla) sormituksilla.
 
Edit. Niin siis eli voisiko laittaa pikkaus suunnat noihin herran ravun tabuihin (pitää oikeen rautalangasta vääntää).
 
kunnasja
10.02.2004 13:33:44
      Linkitä kirjoitukseen Tulosta  

Economy picking on kieltämättä aika HÄRSKIÄ, meni jopa itsellänikin kotvanen sen opetteluun aikanaan enkä vieläkään osaa kuin hitaasti kaavoja ylös alas sillä. Onkos joku keksinyt sille ihan hyötykäyttöä?
 
Enpä ole juurikaan ko. tekniikkaa opetellut. Vaikeuden tekee meikäläisellä muutos ajattelutapaan: yleensä ykkösellä pitääkin pikata ylöspäin, jolloin pää/käsi -koordinaatio jumittaa. Todistetusti kuitenkin (esim kitaranopettajani aikanaan) tällä pystyy vetämään aika pirun hyvää settiä: ei tarvitse murehtia kielenylitysten aiheuttamista epäpuhtauksista, ja kaikille sävelille saa silti kunnon atakin.
 
Visit http://www.helionprog.com
toxic
18.02.2004 19:39:57 (muokattu 22.04.2013 02:30:45)
      Linkitä kirjoitukseen Tulosta  

Kahden kielen sweeppi vielä:

   U         U     D        D
I--15-p-12----------------12----I
I-------------15--12-h-15--------I
I----------------------------------I
I----------------------------------I
I----------------------------------I
I----------------------------------I

 
Jos tuon voi sweepiksi laskea.
 
What the hell is that, that`s an E. - Adrian Smith
Herra Rapu
27.02.2004 09:52:41 (muokattu 27.02.2004 10:42:31)
Musiikkinäyte       Linkitä kirjoitukseen Tulosta  

Voisiko vielä laittaa vaikka numeroilla sormet tuonne noitten sweeppien päälle? Etten vaan taas ala töppäilemään omilla (huonoilla) sormituksilla.
 
Edit. Niin siis eli voisiko laittaa pikkaus suunnat noihin herran ravun tabuihin (pitää oikeen rautalangasta vääntää).

 
Lisäsin tuon plektrakuvion vihdoin tuonne, ei varmaan ollut mikään yllätys tuon kuvion rakenne. Sormitukset saa ite päättää. Pikkusormella mä ite aloittaisin noi kuviot ja siitä eteenpäin aina 1 sormi per nauha. Noi on aika loogisia kuvioita, joten ei noista voi hirveän vaikeita sormituksia saada aikaan.
 
Paino ei ole mikään ongelma.
† FAT = MOTION †
Syö kanaa ja osta kaappi.
Pande
17.03.2004 14:07:44 (muokattu 19.03.2004 08:21:46)
Musiikkinäyte       Linkitä kirjoitukseen Tulosta  

Nysväsin aikani kuluksi taas yhden asemanvaihto/pickaus/sweeppiharjotuksen.
 
Gtr I (B E A D G B E) - 'Sweeppitreeni'

     |--3--|                                |--3--|
     d        u  -  -  -  d     u  d  u  d  u       
||--14h19p14----------------------------------------------|
||-----------15-------------------------------------------|
||o-------------16----------------16-18-19-18h19p18p16S15-|
||-----------------16----------16-------------------------|
||o-------------------17-14h17----------------------------|
||--------------------------------------------------------|
||--------------------------------------------------------|
 
   d     d  -  -  u  -  -  d     -  -  -  u   d
|-------------------------------------15-19-/22p19|
|-------------15-14----------------17-------------|
|-16p15----16-------15----------16----------------|
|-------17-------------16-14h17-------------------|
|-------------------------------------------------|
|-------------------------------------------------|
|-------------------------------------------------|
 
                                            ~~
                |--------8:6---------|
   d     u  -   d  u  d  u  u  d  u  d  u   d
|------------------------------------------------||
|-19S15------------------------------------------||
|-------16---------------------------------16---o||
|----------16--14-17-16-14-----------------------||
|--------------------------17-16-14-13-14-------o||
|------------------------------------------------||
|------------------------------------------------||

 
Soitettuna about: www.jyu.fi/~mkkoykka/sweeppitreeni.mp3
 
(EDIT: vähensin kaikua ja äänitin uudestaan että pätkästä tulisi selkeämpi)
 
PS. miten vatussa tota fonttia saa vaihdettua? :P
 
If you can't dazzle them with your brilliance, baffle them with your bullshit.
alphamale
17.03.2004 14:09:32 (muokattu 17.03.2004 14:09:58)
Kotisivu Musiikkinäyte       Linkitä kirjoitukseen Tulosta  

PS. miten vatussa tota fonttia saa vaihdettua? :P
 
pistät <tab> ennen tabii ja </tab> loppuun.
 
Lahtelaista, totta kai
Erotic Support
Cletus Awreetus
20.03.2004 20:54:03 (muokattu 21.03.2004 09:29:08)
      Linkitä kirjoitukseen Tulosta  

Tässäpä pari treenivinkkiä:
 
Kuuden kielen sweeppiä läpi kaulan tyyliin:
 
---------------5-9--10-8----------------- jne...
-------------5-------------6--------------
----------6-------------------6-----------
--------7-----------------------7---------
-----7----------------------------8-------
5-9-----------------------------10-6- 
 
Viiden kielen sweeppiä vaikkapa näin (läpi kaulan):
 
--------------5-6---------------------------7-- jne.
-----------6-------7----------------------8----
--------7-------------8-----------------9-------
-----7-------------------8------------9----------
5-8------------------------9-6-7-10------------
------------------------------------------
 
Sitten neljän kielen lakaisua läpi kaulan:
 
-------8-5---------------9-6--------------- jne. jne.
----7------6-----------8------7------------
--6-----------7-----7------------8---------
5---------------8-6-----------------9------
---------------------------------------------
----------------------------------------------
 
3 kieltä!:
 
-----5-10-5--------6-11-6---------7-12-7----- jne. jne.
--6----------6----7---------7----8----------8--
7---------------8--------------9----------------
-------------------------------------------------
-------------------------------------------------
-------------------------------------------------
 
Noita kun jauhaan niin saat aikaan pysyviä tuloksia lyhyessä ajassa.
 
"The Cletus Awreetus Sweeping exercises changed my life!"
- Francesco Fareri
 
Tosimiehet tiluttavat, ja paljon!!
lindo
21.03.2004 18:59:53 (muokattu 21.03.2004 19:03:45)
      Linkitä kirjoitukseen Tulosta  

http://kotisivu.mtv3.fi/lotta.lottanen/tilu.mp3
Tuossa ois tollanen sweep juttu, tein joskus muinoin yhteen biisiin säestykseksi, ja siinä oli stemmakin joka soitti vissiin terssiä mutta en vaan enää pysytyn moiseen, ja vähän on näköjään taidot ruostunu :(
 
Jos jotain kiinnostaa treenata tollasta niin voin tehdä asialle jotain...
 
I don't belive anything, if i don't see it first
lindo
22.03.2004 09:50:20 (muokattu 22.03.2004 10:55:34)
      Linkitä kirjoitukseen Tulosta  

Miten kauan kesti ton treenaaminen.
 
Ööö tota... parempi kysymys olis että miten kauan kesti tehdä tuo... eli sillon kun tekee itse jonkun tilutuksen (what ever they are called) niin sen vähän niinkun väkisin oppii siinä samalla.
Eri asia on se jos alat treenaamaan jotain jostain paperista/levyltä, jonka on joku muu tehnyt, sillon sun yleensä tarvii ekaks katsoa kaikki äänet ja omaksua ne, mutta jos teet itse niin sillon sä tiedä jo kaikki äänet... (sanoinko mä jo tän?)
 
Toi lick on aika yksinkertainen kun se perustuu vaan yhteen juttuun.
 
Mites niitä TABbeja kirjotetaan...hmm?
Voisin tehdä tuon perusjutun tähän, kun kerkiää.
 
EDIT:
 
Tässä tämä TAB:
 
|------------------------------------------------|
|------------------------------------------------|
|------------------------------------------------|
|--------5--9--5--------------------------------|
|-----7------------------------------------------|
|--7---------------------------------------------|
|------------------------------------------------|
a--a--a--y--tab
 
Se on noin yksinkertainen :)
 
eli a=alas y=ylös tab=finger tabbig(mikä se on suomeks?)
tuossa 7=keskisormi, 5=etu ja 9=pikku.
Laitoin vain tuon perusjutun koska noi muut soinnut menee täysin samalla lailla ja sitä voit itse soveltaa mihin tahansa sointtuun. (jos haluat voin duunata myös kokonaan)
Sorry mutta ei nyt muista noita termejä kun en ole enää treenannut tollasta, enkä itseasiassa edes koskaan käyttänyt mitään lappuja vaan treenasin korvakuulolta suoraan levyltä :)
 
I don't belive anything, if i don't see it first
Heart Of Steel
15.04.2004 15:50:59 (muokattu 15.04.2004 15:53:31)
Kotisivu       Linkitä kirjoitukseen Tulosta  

Economy picking on kieltämättä aika HÄRSKIÄ, meni jopa itsellänikin kotvanen sen opetteluun aikanaan enkä vieläkään osaa kuin hitaasti kaavoja ylös alas sillä. Onkos joku keksinyt sille ihan hyötykäyttöä? Yleensä heitän vastaavat paikat täppingiksi mieluummin.
 
Economyhan tarkoittaa sitä että soitettaessa samaa kieltä pikataan alas-ylös-alas-ylös tai ylös-alas-ylös-alas riippuen siitä miten kielelle on "tultu". Siirryttäessä ohuemmalle kielelle pikataan alas ja paksummalle ylös.
 
Ja kyllä, minä käytän lähes yksinomaan economya, niin riffeissä kuin melodian tahi soolon soitossa. Alternatea en käytä ollenkaan.
 
Harjoitteluun meni aikaa n. kuukausi, jonka jälkeen ei enää tarvinnut ajatella että mihinkä suuntaan sitä pikattiinkaan vaan homma on ns. automaattista. Alkuun oli kyllä melkoisen kömpelöä, lähinnä kai siksi kun aiemmin olin soittanut alternatella.
 
edit: kirotus vrihe
 
"Nobody tells a Man how to play."
toxic
03.05.2004 14:40:13 (muokattu 22.04.2013 16:51:51)
      Linkitä kirjoitukseen Tulosta  

Rölöm shalom.
 
T: Komodo
 
"...Tuo maitoo saatanan pillukarva..." -Pikkusiskoni (silloin noin 5v) äidille.
Pande
03.05.2004 15:00:23
Musiikkinäyte       Linkitä kirjoitukseen Tulosta  

Tilu-Abbaa kansalle:
 

 Kuuntele: 'Gimme Gimme Gimme' by Abba
 
 Moderate Rock Q=120
 
     |--3--|     |--3--|
     S  S  S  E  S  S  S
|------------10-10--------|
|---------10-------10-----|
|------10-------------10--|
|---12--------------------|
|-------------------------|
|-------------------------|
 
                       |---3---|     |--3--|
     H            +E   S  S    S  E  S  S  S
||-------------------------------10-10-------|
||o---------------------------10-------10----|
||-----------------------10---------------10-|
||--12-----------(12)-12---------------------|
||o------------------------------------------|
||-------------------------------------------|
 
                           |---3---|     |--3--|                      |---3---|     |--3--|
   S  S  S  S  Q      +E   S  S    S  E  S  S  S    H            +E   S  S    S  E  S  S  S
|------------------------------------13-13S12----|------------------------------12-10-------|
|-------------10-----(10)---------13----------13-|---------------------------13-------10----|
|-----9-10-12----------------14------------------|-14-----------(14)----14---------------10-|
|-12----------------------15---------------------|-------------------14---------------------|
|------------------------------------------------|------------------------------------------|
|------------------------------------------------|------------------------------------------|
 
   ~~                                       
                     |---3---|     |--3--|  
   H            +E   S  S    S  E  S  S  S  
|------------------------------10-10--------||
|---------------------------10-------10----o||
|----------------------10---------------10--||
|-12-----------(12)-12----------------------||
|------------------------------------------o||
|-------------------------------------------||
 
 
If you can't dazzle them with your brilliance, baffle them with your bullshit.
Jako
15.05.2004 02:21:43
      Linkitä kirjoitukseen Tulosta  

Siis, meinaako toi downstroke että keiltä lähestytään päältä ja upstroke sitä, että pikataan kielen "alta" :)?
 
Ain't It Fun
toxic
15.05.2004 18:21:51
      Linkitä kirjoitukseen Tulosta  

Siis, meinaako toi downstroke että keiltä lähestytään päältä ja upstroke sitä, että pikataan kielen "alta" :)?
 
Joo.
 
Eli downstrokella alaspäin.
 
Haluatko nähdä Jumalasi? Tietenkin haluat. Sinun tarvitsee vain painaa Jumala-nappia. "Jumala-nappi"
« edellinen sivu | seuraava sivu »
1 2 3 4 526 27 28 29 30

» Lisää uusi kirjoitus aiheeseen (Vaatii kirjautumisen)

» Kirjaudu sisään

Keskustelualueet «
Haku tästä aiheesta / Haku «
Säännöt «

Copyright ©1999-2016, Muusikoiden Net ry. Kaikki oikeudet pidätetään.
Palaute | Käyttöehdot | Rekisteriseloste | Netiketti | Mediakortti