Muusikoiden.net
27.02.2021
 

Kitarat: soittaminen »

Keskustelualueet | Lisää kirjoitus aiheeseen | HakuSäännöt & Ohjeet | FAQ | Kirjaudu sisään | Rekisteröidy

Aihe: The Sounds - Kaipaan sua Tab
1
Erska-81
25.11.2020 17:54:01 (muokattu 25.11.2020 22:16:50)
      Linkitä kirjoitukseen Tulosta  

Soinnut kyseiseen kappaleeseen löytyy,mut löytyykö mistään kappaleen alkuun eli introon olevaa missä soitetaan "dang dang dang" tabia?vaikee selittää,mut jospa ymmärtäisitte tosta mitä tarkotan..
 
Arkka
27.11.2020 00:38:29
Musiikkinäyte       Linkitä kirjoitukseen Tulosta  

Erska-81: Soinnut kyseiseen kappaleeseen löytyy,mut löytyykö mistään kappaleen alkuun eli introon olevaa missä soitetaan "dang dang dang" tabia?vaikee selittää,mut jospa ymmärtäisitte tosta mitä tarkotan..
 
Jaa tää?

---------------------------------------
---------------------------------------
---------------------------------------
---3-5---------------------------------
-6------------7-7-7-7-6-66666666666666-
-------4--4-4--------------------------

En takaa oikeellisuutta.
 
Näille on muuten ihan ketjukin tuossa:
https://muusikoiden.net/keskustelu/posts.php?c=38&t=125203
 
Erska-81
27.11.2020 13:53:29
      Linkitä kirjoitukseen Tulosta  

Arkka: Jaa tää?

---------------------------------------
---------------------------------------
---------------------------------------
---3-5---------------------------------
-6------------7-7-7-7-6-66666666666666-
-------4--4-4--------------------------

En takaa oikeellisuutta.
 
Näille on muuten ihan ketjukin tuossa:
https://muusikoiden.net/keskustelu/posts.php?c=38&t=125203

 
Kiitän! Tätä juuri hain!
 
« edellinen sivu | seuraava sivu »
1

» Lisää uusi kirjoitus aiheeseen (Vaatii kirjautumisen)

Keskustelualueet «
Haku tästä aiheesta / Haku «
Säännöt «

Copyright ©1999-2021, Muusikoiden Net ry. Kaikki oikeudet pidätetään.
Palaute | Käyttöehdot | Rekisteriseloste | Netiketti | Mediakortti