Muusikoiden.net
11.12.2018
 

Kitarat: soittaminen »

Keskustelualueet | Lisää kirjoitus aiheeseen | HakuSäännöt & Ohjeet | FAQ | Kirjaudu sisään | Rekisteröidy

Aihe: Tabulatuurimerkinnät fingerstylessä
1
JiiHoo76
04.06.2018 17:57:17
      Linkitä kirjoitukseen Tulosta  

Terve,
 
osaisikohan joku neuvoa uuvattia että miten nuo mystiset x-merkinnät soitetaan?
Pitäisikö yrittää peukalolla lyödä kieliä ja näpätä samalla hetkellä säveliä?
 
Tuossa jonkinlainen esimerkki:
 
----------------------------------
----------------------------1----
----0-----------1-----------------
----0-------2---------------------
----x---------------x-------x-----
----x---------------x-------x-----
 
Kiitoksia etukäteen.
 
santakasa
05.06.2018 11:06:25
      Linkitä kirjoitukseen Tulosta  

JiiHoo76: Terve,
 
osaisikohan joku neuvoa uuvattia että miten nuo mystiset x-merkinnät soitetaan?
Pitäisikö yrittää peukalolla lyödä kieliä ja näpätä samalla hetkellä säveliä?
 
Tuossa jonkinlainen esimerkki:
 
----------------------------------
----------------------------1----
----0-----------1-----------------
----0-------2---------------------
----x---------------x-------x-----
----x---------------x-------x-----
 
Kiitoksia etukäteen.

 
Kuoletat x:llä merkityt sävelet otelaudan sormilla. Sävelet voi koittaa päätellä, mitä aikaisemmin on soitettu kyseisillä kielillä. Esim. jos tuossa olisi soitettu E-kielen 2. nauhalta ja A-kielen 4. nauhalta ennen tuota kyseistä tabulatuuria, kuolettaisit ne ne nauhat noiden x-merkintöjen kohdalla. Kannattaa myös kuunnella kyseistä kappaletta, jotta löytyy oikea ote.
 
Koska sormeni ovat lyhyet, olen keksinyt omia twistejä omalle motoriikalleni. - mace2691
Gary Enfield
05.06.2018 11:13:32
      Linkitä kirjoitukseen Tulosta  

JiiHoo76: Terve,
 
osaisikohan joku neuvoa uuvattia että miten nuo mystiset x-merkinnät soitetaan?
Pitäisikö yrittää peukalolla lyödä kieliä ja näpätä samalla hetkellä säveliä?
 
Tuossa jonkinlainen esimerkki:
 
----------------------------------
----------------------------1----
----0-----------1-----------------
----0-------2---------------------
----x---------------x-------x-----
----x---------------x-------x-----
 
Kiitoksia etukäteen.

 
Enpä tiedä, mutta voin arvata, että kämmensyrjällä dempataan kaksi alinta, joita peukku räppää ilmeisesti tasatahtiin, muut sormet hoitaa nuo vapaana soivat kielet.
 
JiiHoo76
05.06.2018 14:02:07
      Linkitä kirjoitukseen Tulosta  

Ok, minäpä kokeilen josko hommasta jotakin saisi tulemaan.
Paljon kiitoksia.
 
« edellinen sivu | seuraava sivu »
1

» Lisää uusi kirjoitus aiheeseen (Vaatii kirjautumisen)

Keskustelualueet «
Haku tästä aiheesta / Haku «
Säännöt «

Copyright ©1999-2018, Muusikoiden Net ry. Kaikki oikeudet pidätetään.
Palaute | Käyttöehdot | Rekisteriseloste | Netiketti | Mediakortti