Muusikoiden.net
16.12.2018
 

Kitarat: soittaminen »

Keskustelualueet | Lisää kirjoitus aiheeseen | HakuSäännöt & Ohjeet | FAQ | Kirjaudu sisään | Rekisteröidy

Aihe: Black Sabbath - Killing yourself to live
1
Brownie
25.01.2018 18:19:27 (muokattu 25.01.2018 18:20:17)
      Linkitä kirjoitukseen Tulosta  

Netissä melkein kaikki tabulatuurit on väärin. Olenkin alkanut luottaa enempi omaan korvaani. Mites tämän biisin introriffi menee oikeasti? Tässä on nyt ekana netistä löytämäni tabi, joka on mielestäni väärin, ja sen perässä oma versioni, joka mielestäni on lähempänä oikeaa(kantsii kopioida muistioon, niin näkyy selkeämmin):
 
|------------------------------------------------------------|
|------------------------------------------------------------|
|------------------5--5--------------------------------------|
|------------7-7---5--5---7-----------------5---7--7---------|
|------3-----7-7---3--3---7-----------0-----3---5--5---7-----|
|--0-3---3---5-5----------5-------0-3------------------5-----|
 

 
|------------------------------------------------------------|
|------------------3-----------------------------------------|
|------------------2--0---------------------2---4--4---2-----|
|------------2-2---0--0---2-----------------3---5--5---2-----|
|------3-----0-0----------0-----------0-----3---5--5---0-----|
|--0-3---3------------------------0-3------------------------|
 
If it ain't got swing, it ain't worth a thing.
papitsu
25.01.2018 23:42:41
      Linkitä kirjoitukseen Tulosta  

Nuo soinnut lopussa taitaa olla XX056X, XX078X ja X022XX.
 
Mielipiteeni on fakta.
Ahti Tuumiainen
27.01.2018 05:32:29 (muokattu 27.01.2018 05:35:29)
      Linkitä kirjoitukseen Tulosta  

Joo, toi eka ainakin on väärin.
 
Mun mielestä se menis jotenkin näin:
 
A5 D5 G5 A5 Dm G A5
e------------------------------------------------------------
h------------------3----------------------------0--0---------
g------------------2--0---2-----------------2---0--0---2-----
d------------2-2---0--0---2-----------------3---0--0---2-----
a------3-----0-0----------0-----------0-----5----------0-----
e--0/3---3------------------------0/3------------------------
 
Volcom
27.01.2018 11:09:49
      Linkitä kirjoitukseen Tulosta  

x335xx
 
x557xx
 
x076xx
 
Jos korvaa nuo kolme viimeistä sointua yo. soinnuilla, pääsee mielestäni jo aika lähelle
 
"Music comes first; lyrics are secondary"
Ahti Tuumiainen
28.01.2018 08:12:22
      Linkitä kirjoitukseen Tulosta  

Volcom: x335xx
 
x557xx
 
x076xx
 
Jos korvaa nuo kolme viimeistä sointua yo. soinnuilla, pääsee mielestäni jo aika lähelle

 
Kappas, noin itsekin soitin yhteen aikaan!
 
Brownie
31.01.2018 12:49:28 (muokattu 31.01.2018 12:52:32)
      Linkitä kirjoitukseen Tulosta  

Entäs onko tämä säkeistön kitarakuvio mielestänne oikein?
 
e------------------------------------
h---------------------------3-------
g---------------------------2-------
d--0-3-0-2-0-3-0----0h2----------
a-------------------3---------------
e------------------------------------
 
Siis lähinnä tuota viimeistä ''sointua'' mietin...
 
If it ain't got swing, it ain't worth a thing.
öl m
31.01.2018 12:54:24
      Linkitä kirjoitukseen Tulosta  

Käyttäkää <tab>-tagia, niin on helpompi hahmottaa ne tabit.
 
"Voidaan varmaankin olla yhtä mieltä siitä, että te tarvitsette tällaisen laitteen."
Ahti Tuumiainen
31.01.2018 13:33:56 (muokattu 31.01.2018 13:34:58)
      Linkitä kirjoitukseen Tulosta  

Brownie: Entäs onko tämä säkeistön kitarakuvio mielestänne oikein?
 
e------------------------------------
h---------------------------3-------
g---------------------------2-------
d--0-3-0-2-0-3-0----0h2----------
a-------------------3---------------
e------------------------------------
 
Siis lähinnä tuota viimeistä ''sointua'' mietin...

 
Mä soittaisin ehkä näin:
 
<tab>
e-----------------------
h-----------------------3-
g-----------------------2-
d---3---2---3-----0/2---
a-5---5---5---5/0-------
e-----------------------
-let ring-------
<tab>
 
Ja viimeinen ''sointu'' on kait ihan oikein. Se soi niin vähän aikaa, että vaikea hahmottaa.
 
öl m
31.01.2018 14:05:43
      Linkitä kirjoitukseen Tulosta  

Ahti Tuumiainen: Mä soittaisin ehkä näin:
 
e-----------------------
h-----------------------3-
g-----------------------2-
d---3---2---3-----0/2---
a-5---5---5---5/0-------
e-----------------------
-

 
Tagit "suljetaan" /-merkillä, joka tässä tapauksessa tulee jälkimmäisen tabin t-kirjaimen eteen.
 
"Voidaan varmaankin olla yhtä mieltä siitä, että te tarvitsette tällaisen laitteen."
Ahti Tuumiainen
01.02.2018 12:12:55 (muokattu 01.02.2018 12:13:51)
      Linkitä kirjoitukseen Tulosta  

<tab>
e-----------------------
h-----------------------3-
g-----------------------2-
d---3---2---3-----0/2---
a-5---5---5---5/0-------
e-----------------------
/<tab>
 
EDIT: Ei ossoo tuota tag-jutskaa...
 
öl m
01.02.2018 12:17:38 (muokattu 01.02.2018 12:18:20)
      Linkitä kirjoitukseen Tulosta  

Ahti Tuumiainen: EDIT: Ei ossoo tuota tag-jutskaa...
 
Kieltämättä sen järkevä selittäminen on tehty täällä miltei mahdottomaksi.
 
/-merkki siis tulee väkäsen jälkeen ennen t-kirjainta, jolloin lopputulos näyttänee seuraavalti:
 

e-----------------------
h-----------------------3-
g-----------------------2-
d---3---2---3-----0/2---
a-5---5---5---5/0-------
e-----------------------
 
"Voidaan varmaankin olla yhtä mieltä siitä, että te tarvitsette tällaisen laitteen."
Ahti Tuumiainen
01.02.2018 14:02:05 (muokattu 01.02.2018 14:02:18)
      Linkitä kirjoitukseen Tulosta  


e-----------------------
h-----------------------3-
g-----------------------2-
d---3---2---3-----0/2---
a-5---5---5---5/0-------
e-----------------------

 
EDIT: Do di! =)
 
Torniojaws
01.03.2018 11:23:45 (muokattu 01.03.2018 11:25:08)
Kotisivu Musiikkinäyte       Linkitä kirjoitukseen Tulosta  

öl m: Kieltämättä sen järkevä selittäminen on tehty täällä miltei mahdottomaksi.
 
HTML-entiteetit apuun ;) Eli voit kirjoittaa esim.
 
& #47;
& gt;
& lt;
 
Mutta ilman tuota välilyöntiä Et -merkin jälkeen, niin tulee merkki sellaisenaan eikä häviä (ennen kuin muokkaat kirjoitusta, jolloin se katoaa :) ). Sitten tulee näkyviin:
 
& gt;
& lt;
 
Ja tabit menee siis:
 
<tab>tabin sisältö tähän</tab>
 
E:
Ou nou, tosiaan ei sallita kauttaviivaa missään muodossa, edes entiteettiä. Se vain katoaa.
 
Vortech Industrial Death Metal
öl m
01.03.2018 11:38:49
      Linkitä kirjoitukseen Tulosta  

Torniojaws: E:
Ou nou, tosiaan ei sallita kauttaviivaa missään muodossa, edes entiteettiä. Se vain katoaa.

 
Tehokkain tapa "escapoida" kautta-viiva mnetissä lienee piirtää se tussilla näyttöön.
 
"Voidaan varmaankin olla yhtä mieltä siitä, että te tarvitsette tällaisen laitteen."
Groke
08.03.2018 18:20:20
      Linkitä kirjoitukseen Tulosta  

Brownie: Netissä melkein kaikki tabulatuurit on väärin. Olenkin alkanut luottaa enempi omaan korvaani.
 
Saman huomion on aika moni joutunut tekemään. Sillä usein aivan totaalialoittelijakin hoksaa heti samantien, että eihän tämä ole edes sinne päinkään. Tässä eräs esimerkkitapaus:
* Worst... Tab... EVER! - https://www.youtube.com/watch?v=Km0XV8Haml8
 
D'oh!
« edellinen sivu | seuraava sivu »
1

» Lisää uusi kirjoitus aiheeseen (Vaatii kirjautumisen)

Keskustelualueet «
Haku tästä aiheesta / Haku «
Säännöt «

Copyright ©1999-2018, Muusikoiden Net ry. Kaikki oikeudet pidätetään.
Palaute | Käyttöehdot | Rekisteriseloste | Netiketti | Mediakortti