Muusikoiden.net
09.12.2016
 

Kitarat: soittaminen »

Keskustelualueet | Lisää kirjoitus aiheeseen | HakuSäännöt & Ohjeet | FAQ | Kirjaudu sisään | Rekisteröidy

Aihe: Tabulatuurit sooloon
1
SebuPeba
09.12.2014 22:33:12 (muokattu 09.12.2014 22:34:39)
      Linkitä kirjoitukseen Tulosta  

Haluaisin tabulatuurit Edu Kettusen Lentäjän poika sooloon.
 
Jelppiä?
 
Linkillä suoraan sooloon: http://youtu.be/ObML401eFPQ?t=2m10s
 
Ja tabit mielellään tällaiselle pohjalle:
 
e|---------------------------------------------------------------------------|
B|---------------------------------------------------------------------------|
G|---------------------------------------------------------------------------|
D|---------------------------------------------------------------------------|
A|---------------------------------------------------------------------------|
E|---------------------------------------------------------------------------|
 
slerbis
10.12.2014 00:40:44
      Linkitä kirjoitukseen Tulosta  

SebuPeba: Haluaisin tabulatuurit Edu Kettusen Lentäjän poika sooloon.
 
Jelppiä?
 
Linkillä suoraan sooloon: http://youtu.be/ObML401eFPQ?t=2m10s
 
Ja tabit mielellään tällaiselle pohjalle:
 
e|---------------------------------------------------------------------------|
B|---------------------------------------------------------------------------|
G|---------------------------------------------------------------------------|
D|---------------------------------------------------------------------------|
A|---------------------------------------------------------------------------|
E|---------------------------------------------------------------------------|

 
Vähän oma-aloitteista yritystä nyt. Ko. soolo on todella yksinkertainen ja mukailee melodiaa vahvasti.
 
Lähde liikkeelle tästä ja tapaile itse eteenpäin. Kaikki soolon sävelet löytyvät ihan siitä lähettyviltä.
 

 
e|-------------------------------|
B|-------------------------------|
G|----9--10--9--9----10--9--9----|
D|-------------------------------|
A|-------------------------------|
E|-------------------------------|
 
 
A tergo in bona nates
Ruutukunkku
10.12.2014 14:38:47
      Linkitä kirjoitukseen Tulosta  

slerbis: Vähän oma-aloitteista yritystä nyt. Ko. soolo on todella yksinkertainen ja mukailee melodiaa vahvasti.
 
Lähde liikkeelle tästä ja tapaile itse eteenpäin. Kaikki soolon sävelet löytyvät ihan siitä lähettyviltä.
 

 
e|-------------------------------|
B|-------------------------------|
G|----9--10--9--9----10--9--9----|
D|-------------------------------|
A|-------------------------------|
E|-------------------------------|
 

 
Tässäkin taitaa olla jo yksi virhe.
 
You are number six
F_Lame
10.12.2014 15:16:11
Kotisivu       Linkitä kirjoitukseen Tulosta  

Ruutukunkku: Tässäkin taitaa olla jo yksi virhe.
 
Netissä jaetuissa tabeissa ja sointulapuissa kuuluu olla virheitä, koska sillä erotetaan soittajat, jotka seuraa sokeasti tabeja niistä, jotka käyttää korviaan :)
 
"When they say less is more, that is bullshit. Less is less and more is more. Simple as that." -Yngwie Malmsteen
www.DREAMTALE.org
gunner
10.12.2014 15:23:35 (muokattu 10.12.2014 15:23:49)
      Linkitä kirjoitukseen Tulosta  

Tästä lähet vähän fiilistää
 

 
e|------------------------------------------------------------------------------------------------------------------------|
B|-----------------------------------13---13-12---12-10-----------10-13-12h13p12p10--------------------------------13-12--|
G|--9--10-9--9----9--12-9--9--9----9----9-------9---------9/10-10-------------------12-10-9---10-9-10-10--12-10-12--------|
D|------------------------------------------------------------------------------------------------------------------------|
A|------------------------------------------------------------------------------------------------------------------------|
E|------------------------------------------------------------------------------------------------------------------------|
 
Jucciz
10.12.2014 20:13:52 (muokattu 10.12.2014 20:15:31)
Kotisivu Musiikkinäyte       Linkitä kirjoitukseen Tulosta  

gunner: Tästä lähet vähän fiilistää
 

 
e|------------------------------------------------------------------------------------------------------------------------|
B|-----------------------------------13---13-12---12-10-----------10-13-12h13p12p10--------------------------------13-12--|
G|--9--10-9--9----9--12-9--9--9----9----9-------9---------9/10-10-------------------12-10-9---10-9-10-10--12-10-12--------|
D|------------------------------------------------------------------------------------------------------------------------|
A|------------------------------------------------------------------------------------------------------------------------|
E|------------------------------------------------------------------------------------------------------------------------|
 

 
Kivasti näkee tosta heti tahtiviivat, nuottien kestot, tauot ja etenkin sen, missä sävellajissa ollaan. Helppo vetää oikein, jos ei ois sattunu kuulemaan ennalta.
 
Jos tarvitset putkien mittauspalveluita, tsekkaa täältä. Jos komppilaput kiinnostavat, tsekkaa sivut täältä.
freakingenius
10.12.2014 20:35:37 (muokattu 10.12.2014 20:35:52)
      Linkitä kirjoitukseen Tulosta  

Jucciz:
 
Kivasti näkee tosta heti tahtiviivat, nuottien kestot, tauot ja etenkin sen, missä sävellajissa ollaan. Helppo vetää oikein, jos ei ois sattunu kuulemaan ennalta.

 
mun mielestä kuulosti ainakin tosi kivalta... hehe (pitää varmaan laittaa hymiö niin tajutaan että oli sarkasmia) :)
 
gunner
10.12.2014 22:39:54
      Linkitä kirjoitukseen Tulosta  

Jucciz:
 
Kivasti näkee tosta heti tahtiviivat, nuottien kestot, tauot ja etenkin sen, missä sävellajissa ollaan. Helppo vetää oikein, jos ei ois sattunu kuulemaan ennalta.
 
Saa kyllä olla aikamoisessa tynnyrissä kasvanut jos ei Lentäjän Poikaa ole kuullut.
Bf109
10.12.2014 23:17:18 (muokattu 10.12.2014 23:18:09)
      Linkitä kirjoitukseen Tulosta  

Jucciz:
Kivasti näkee tosta heti tahtiviivat, nuottien kestot, tauot ja etenkin sen, missä sävellajissa ollaan. Helppo vetää oikein, jos ei ois sattunu kuulemaan ennalta.

 
Jos soolon plokkaus korvakuulolta ei onnistu, niin kyllähän toi edes vähän korvia aktivoi kun pitää miettiä miten se oikeastaan kuuluu alkuperäisessä.
 
Jucciz
11.12.2014 11:11:30 (muokattu 11.12.2014 11:14:02)
Kotisivu Musiikkinäyte       Linkitä kirjoitukseen Tulosta  

gunner: Saa kyllä olla aikamoisessa tynnyrissä kasvanut jos ei Lentäjän Poikaa ole kuullut.
 
Tilanne voi olla monille se, että "tuo biisihän soi radiossa koko ajan silloin kun öö... sää et ollu vielä ees syntyny". En minäkään oo kieltämättä kuullut tuota biisiä enää aikoihin mistään, vaikka lapsena sen kuulinkin monesti ja vielä koulun musatunneillakin sitä laulettiin ja soitettiin. Jos se tuleekin radiosta aika ajoin, olkoon niin, itse en ole radiota pystynyt kuuntelemaan yli kymmeneen vuoteen.
 
Joka tapauksessa, kiva pop-biisihän se on, ja erinomaista harjoitusmateriaalia korvakuulolta soittamiseen: simppeli rakenne, pysytään koko ajan samassa sävellajissa eikä kromatiikkaakaan esiinny yhtään. Ihan siitä sävellajin sisältä löytyy kaikki melodia- ja sointusävelet.
 
Korvat vaan rohkeasti käyttöön ja vaikka yksi ääni kerrallaan kohti päämäärää.
 
Jos tarvitset putkien mittauspalveluita, tsekkaa täältä. Jos komppilaput kiinnostavat, tsekkaa sivut täältä.
tukse
11.12.2014 14:26:05 (muokattu 11.12.2014 15:04:24)
      Linkitä kirjoitukseen Tulosta  

Opettele C major skaala, niin voit improvisoida siihen semmoisen soolon että kuulijat lentää perseelleen :D
 
http://www.scalerator.com/?optionsD … pattern=major&tuning=EADGBE&size=30
 
Put up or shut up
Ruutukunkku
11.12.2014 15:52:17
      Linkitä kirjoitukseen Tulosta  

Jucciz:
 
Kivasti näkee tosta heti tahtiviivat, nuottien kestot, tauot ja etenkin sen, missä sävellajissa ollaan. Helppo vetää oikein, jos ei ois sattunu kuulemaan ennalta.

 
Sinänsä ymmärrän tabulaattori-inhosi, mutta jos itselläni niitä ei olisi ollut käytössä soittouran alussa, olisi hommat varmasti jäänyt sikseen. Silloin kiinnosti tasan yksi asia; soittamaan oppiminen. Ei nuotit, eikä teoria. Tabit on kuitenkin paljon helpommin omaksuttavia vs nuotit, joten energiaa riittää enemmän "itse asiaan". Kehittää se tabeista lunttaaminen ainakin rytmikorvan kehittymistä, koska niitä aika-arvoja merkinnöissä tosiaan ei ole vaan joutuu ihan kuuntelemaan biisiä.
 
Sittemmin kyllä on teoria tullut tutuksi ihan omasta mielenkiinnosta. Esim konsaopintojen teoriatunneilla tunsin olevani vähemmän pihalla kun monet muut. Ja se asia jopa kiinnosti. Näillä voi olla tietysti joku syy-yhteyskin.
 
Tietysti omien korvien käyttäminen ja sen harjoitteleminen, jne....
 
You are number six
silhouette
11.12.2014 19:40:48 (muokattu 11.12.2014 19:42:37)
Musiikkinäyte       Linkitä kirjoitukseen Tulosta  

Joo, minäkin ymmärrän Juccizen inhon tabulatuureja kohtaan, mutta mulla on sama juttu kuin Ruutukunkulla, eli jos ei olisi ollut tabeja kun aloitin, niin voi olla, että soittaminen olisi jäänyt. Tai sitten ei koska olen pienestä pitäen opetellut tabien lisäksi melkein kaiken korvakuulolta, mutta ainakin se on hieman helpottanut ainakin mun "uraa" kitarisitina. Ja, nykyään kun luen - korvakuulon lisäksi - suhteeellisen paljon pelkkiä nuotteja, niin ymmärrän Juccizen asenteen oikeastaan aika helpostikin: onhan se ihan eri asia lukea nuoteista, aika-arvot, tauot, sävellajit jne. Ja, lisäksi nuotitus on myös erittäin kaunis kieli ja järjestelmä kun sitä oppii lukemaan oikein =)
 
Aina voi yrittää.
-Hexa-
12.12.2014 09:16:21
      Linkitä kirjoitukseen Tulosta  

Tabit - Tabinuotticombo - Nuotit
 
Tuolta näyttää oma elämänkaari soittamisen suhteen. Korvakuulo hyppäsi mukaan jossain tuossa tabinuotticombo kauden aikana.
 
Itseäni ei ainakaan kiinnostanut yhtään nuotisto joskus 13-14-15w, koska riffejä soitettiin ja metallica oli vitunjepa.
 
Eiköhän jokainen soittokipinää ylläpitävä kitaristi hurahda tuohon nuottiopetteluun jossain vaiheessa. Pääasia, että soittaminen on hauskaa :)
 
Tekniikka on musiikissa hyvä renki, mutta huono isäntä.
Volcom
12.12.2014 09:36:08
      Linkitä kirjoitukseen Tulosta  

Guitar pro muodossa olevat tabulatuurit kenties "kompromissi" niistä nillittäville? Niistähän näkee aika-arvot. En näe että kaikkien on tarpeellista opetelle nuotteja, jos joskus ei korvakuulo vaan riitä.
 
"Music comes first; lyrics are secondary"
tender.insanity
12.12.2014 09:36:24 (muokattu 12.12.2014 09:37:47)
      Linkitä kirjoitukseen Tulosta  

Mä soitin pianoa pari vuotta ennen kuin aloitin kitaran soiton. Sitten kun akustisen sain joululahjaksi niin aloitin soittamaan ihan jotain jänis istui maassa koulun laulukirjasta. Kirjastosta hain Iron Maidenin "Rock Score" nuottikirjan, jossa ei edes tabulatuureja ollutkaan. Sieltä opettelin mm. Phantom of The Operaa ja Remember Tomorrowia. Kirjastosta löytyi myös Somewhere In Time nuottikirja. Siitäkin soittelin nuoteista, vaikka tabulatuurit olivat alla. En niistä numeroista ja merkinnöistä tajunnut silloin oikein mitään.
 
Nykyään käytän niin nuotteja kuin tabulatuureja. Kumpikaan ei tuota ongelmia eikä kumpikaan sulje toisiaan pois. Molempi parempi. Tykkään sekä että.
 
Ihan yhtä sujuvasti kirjoitan nuotteja joku Guitar Pron tabulatuuriin, DAWin piano rolliin taikka nuotinnusohjelman viivastolle, sekä myös luen niistä.
 
www.enfarce.com
« edellinen sivu | seuraava sivu »
1

» Lisää uusi kirjoitus aiheeseen (Vaatii kirjautumisen)

» Kirjaudu sisään

Keskustelualueet «
Haku tästä aiheesta / Haku «
Säännöt «

Copyright ©1999-2016, Muusikoiden Net ry. Kaikki oikeudet pidätetään.
Palaute | Käyttöehdot | Rekisteriseloste | Netiketti | Mediakortti