Muusikoiden.net
23.04.2017
Atomcom Musikhaus | Ylöjärven musiikkikauppa 

Kitarat: soittaminen »

Keskustelualueet | Lisää kirjoitus aiheeseen | HakuSäännöt & Ohjeet | FAQ | Kirjaudu sisään | Rekisteröidy

Aihe: P. Pohjolan Vapour Trailsin introtabit
1
Joonas.H
25.10.2013 18:19:09 (muokattu 26.10.2013 00:03:05)
Kotisivu       Linkitä kirjoitukseen Tulosta  

Olen yrittänyt opetella Pekka Pohjolan Vapour Trailsin kitaraintroa korvakuulolla ja se tuntuu tuottavan vaikeuksia. Olen nyt kuitenki päätyny löytämään mielestäni tuon kitara"riffin" ja tässä on tabit, pystyiskö joku ulkopuolinen soittamaan nuista ja sanomaan, jos siellä on jotain virheitä (eteenkin kertauksen jälkeinen kohta tuottaa hankaluuksia).. On meinaan oma korva jo sen verran turtunut tuolle alulle, ettei meinaa tulla mitään.
 
E:---------------------------------------------------------------------------------------------------------------------------------|
B:---------------------------------------------------------------------------------------------------------------------------14-15-15b-12-|
G:-14-14-13-11----11----------------------------------------------------------------------------------------------------15-----------------|
D:--------------14-------12-12-11----11-------------------------------------------------------------13--------14-17-16------------------- -|
A:---------------------------------14----14-12-14-(12)~(14)~(12)~(14)~(12)~(14)--------12-11-15----15-15--------------------------------|
E:----------------------------------------------------------------------------------10-14---------------------------------------------------- -| x2
 
E:----------------------------------------------10-------------------------------------10-12-10----
B:-12-14---------------12-16b-16-12--------14---14-12-14-12-10-12------------12-14----------14-12-10-12
G:--------11------13----------------------------------------------------------------------------------
D:-------------------------------------------------------------------------
A:--------------------------------------------------------------------------------------
E:--------------------------------------------------------------------------------
 
E:----------------------10-------------------------------------------------------
B:----------------12-14--14-12-14-12-10-12--------12--------------10--10
G:-------------------------------------------13-11-9---13-11-9-11-9--9--
D:-------------------------------------------------------------------
A:---------------------------------------------------------------------
E:-------------------------------------------------------------------
 
« edellinen sivu | seuraava sivu »
1

» Lisää uusi kirjoitus aiheeseen (Vaatii kirjautumisen)

Keskustelualueet «
Haku tästä aiheesta / Haku «
Säännöt «

Copyright ©1999-2017, Muusikoiden Net ry. Kaikki oikeudet pidätetään.
Palaute | Käyttöehdot | Rekisteriseloste | Netiketti | Mediakortti