Muusikoiden.net
10.12.2016
HOTONE - pienimmät pedaalit koskaan? 

Kitarat: soittaminen »

Keskustelualueet | Lisää kirjoitus aiheeseen | HakuSäännöt & Ohjeet | FAQ | Kirjaudu sisään | Rekisteröidy

Aihe: Päivän sää tabi
1
Brownie
05.10.2010 21:15:53
      Linkitä kirjoitukseen Tulosta  

Joskus mulla oli päivän sää tabi, joka oli tosi hyvä. En muista kuka sen oli tehnyt. Oisko kellään heittää sitä?
 
Rotuvaari
05.10.2010 23:59:35
      Linkitä kirjoitukseen Tulosta  

Ei ole just näitä, mutta kerran plokkailin Prisman vanhan mainosmusiikin soinnut. Siis sen "Niin edullinen, se on Prisma kai sinäkin tiedät jo sen". Alkoi muistaakseni C:stä tms. Nykyään mainoksissa on kaikkea säkä-säkä-bum-bum-teknoheviä eikä edes tee mieli ruveta plokkailemaan kun ei ole laaser-urkuja edes.
 
Jos otat kollin voit hörhiä muiden natu kissojen kanssa. Ja näin saat extraa tekemiseen eli tekeminen nousee yli maximin. Kissan elämää -tietokonepeli
ekikoo
06.10.2010 00:08:16 (muokattu 06.10.2010 11:31:05)
Kotisivu Musiikkinäyte       Linkitä kirjoitukseen Tulosta  

Meitsi joskus plokkaili siitä yhden version mutten jaksa oikee kirjoittaa tabeiksi, sen sijaan oon yrittänyt etsiä sitä teemabiisiä mistä lie tuubeista tuloksetta, että transcraibaisin sen tarkasti.
edit:

|--12--11--10--9--8----7--|----------------------|----------------------|
|--11--10--9---8--7----7--|--5---3--------------|-----------------------|
|--12--11--10--9--8----8--|---------4-----------|--------2----3----4----|
|-------------------------|--------------0------|-2---------------------|
|-------------------------|---------------------|-----------------------|
|-------------------------|--0------0-----------|-0------2----3----4----|
 
 
-----------------------|---7--------------------|----------------------11-----|
--10/9----7------------|------10----9---7-------|---------9--10--12----------|
--------------9~-------|------------------------|--9--11---------------------|
--------7--------------|----------9-------------|----------------------9-----|
--0--------------------|------------------------|----------------------------|
-----------------------|---7--------------------|--0-------------------------|
 
 
--12------------------||
------8/-9------------||
--9----------9~------||
------8/-9------------||
-----------------------||
-----------------------|| 

 
?
 
All these pianists striving for perfection. Fools! Don't they know: PERFECT AIN'T GOOD ENOUGH!
crestfall
06.10.2010 00:24:24 (muokattu 06.10.2010 00:28:18)
Kotisivu Musiikkinäyte       Linkitä kirjoitukseen Tulosta  

Brownie: Joskus mulla oli päivän sää tabi, joka oli tosi hyvä. En muista kuka sen oli tehnyt. Oisko kellään heittää sitä?
 
Katotaan tuleeko oikean kokoisina vai joutuuko editoimaan huruna.
 
En lupaa että menee prikulleen oikein, näin mää vaan sitä soittelen. Saa korjata, jos joku paremmin osaa.

|--12--11--10--9--8----7-----|------------------------|----------------------|
|--11--10--9---8--7----7-----|------------------------|----------------------|
|--12--11--10--9--8----8-----|--9-------7------------|----------------------|
|-----------------------------|-----9-------6---------|-------4----5----7----|
|-----------------------------|--------------------5--|--7-------------------|
|-----------------------------|-----------------------|----------------------|
 

-----------------------|--------------------------|----------------------11----|
--10--9----7-----------|--12--10----9------------|---------9--10--12---------|
--------------9~-------|---------------11----8---|--9--11--------------------|
-----------------------|--------------------------|----------------------------|
-----------------------|--------------------------|----------------------------|
-----------------------|--------------------------|----------------------------|
 

--12------------------||
------8/-9------------||
--------------9~------||
-----------------------||
-----------------------||
-----------------------||
 
edit: josko noi tabit nyt näkyisivät fiksummin.
 
Kelpaisiko ilmainen instrumentaalimusiikki? Ihmettele & ihastu: http://www.svetogorsk.fi
Brownie
06.10.2010 11:00:06
      Linkitä kirjoitukseen Tulosta  

Oli joskus semmosen version kirjoittanut joku, missä oli kaikki bassot ja kaikki samassa. Se oli tosi hyvetty.
 
Tiluttaja
09.10.2010 12:08:14
      Linkitä kirjoitukseen Tulosta  

Joskus vuosia sitten tuli plokkailtua tuo, ja löytyihän se vielä tuolta kun kaivoi.
 
http://muusikoiden.net/keskustelu/posts.php?c=38&t=51158&o=0&#p819584
 
« edellinen sivu | seuraava sivu »
1

» Lisää uusi kirjoitus aiheeseen (Vaatii kirjautumisen)

» Kirjaudu sisään

Keskustelualueet «
Haku tästä aiheesta / Haku «
Säännöt «

Copyright ©1999-2016, Muusikoiden Net ry. Kaikki oikeudet pidätetään.
Palaute | Käyttöehdot | Rekisteriseloste | Netiketti | Mediakortti