Muusikoiden.net
03.12.2016
 

Kitarat: soittaminen »

Keskustelualueet | Lisää kirjoitus aiheeseen | HakuSäännöt & Ohjeet | FAQ | Kirjaudu sisään | Rekisteröidy

Aihe: Pikkausohjeita
1
jniska
15.08.2010 18:28:53 (muokattu 15.08.2010 18:32:27)
      Linkitä kirjoitukseen Tulosta  

Tollanen luritus, 1/16 osia, tempo 105.
Miten tuo olisi hyvä pikata, kertokaas tiluttajat.
 

 
------------12-15p-12----12------------------------------------------------------|
-----12h-15-----------15----15p-12-15p-12----12--------------------------------|
--------------------------------------------14----14p-12-14p-12----12-----------|
------------------------------------------------------------------14----14p-12-14|
----------------------------------------------------------------------------------|
----------------------------------------------------------------------------------|
 
edit: olipas vaikea kirjoittaa, kun esikatselu ja lopputulos ei ole samat
 
Laiha Lissu oli paras.
Tonski
15.08.2010 18:34:31
Musiikkinäyte       Linkitä kirjoitukseen Tulosta  

Oisko menny jelppikerhoon?
 
alas(hammer)-alas-ylös(pulloff)-alas-ylös-alas(pulloff)-alas(pulloff)-ylös-alas-ylös(pulloff)-alas(pulloff)-ylös-alas-ylös(pulloff)-alas. Yleensähän nää neuvot on tietty aika kyseenalaisia, sillä joka soittajalla on omanlainen tapansa pikata nää.
 
"Onhan se täydellinen. Ynkkä ei tee virheitä musiikissa. Ynkkä on täydellinen." -JIRPPI
Ianuarius
15.08.2010 22:56:33
Kotisivu Musiikkinäyte       Linkitä kirjoitukseen Tulosta  

Heittää noi legatot helvettiin ja economyl missä pystyy... :o
 
And we got caught in the whirlwind // Torn by the storms of our lives.
Tonski
15.08.2010 23:00:36
Musiikkinäyte       Linkitä kirjoitukseen Tulosta  

January: Heittää noi legatot helvettiin ja economyl missä pystyy... :o
 
Älä kuuntele, ei economylla!! Don't turn over to the dark side!
 
"Onhan se täydellinen. Ynkkä ei tee virheitä musiikissa. Ynkkä on täydellinen." -JIRPPI
kimurantti1
15.08.2010 23:06:08
Musiikkinäyte       Linkitä kirjoitukseen Tulosta  

January: Heittää noi legatot helvettiin ja economyl missä pystyy... :o
 
Saatko sä soundaamaan legaton ja economyn täsmälleen samalta?
 
http://www.piecemakerband.com
"Practice cures most tone issues." -John Suhr
wavelength
16.08.2010 10:26:52
Kotisivu       Linkitä kirjoitukseen Tulosta  

January: Heittää noi legatot helvettiin ja economyl missä pystyy... :o
 
Paikallisesti kipualueelle levitettävä Economyl auttaa rannevaivoihin. Nyt apteekista ilman reseptiä.
 
I'll get my coat.
 
EDELLEEN myytävänä Jackson PS4 -sähkökitara...
Ianuarius
16.08.2010 10:50:31
Kotisivu Musiikkinäyte       Linkitä kirjoitukseen Tulosta  

Tonski: Älä kuuntele, ei economylla!! Don't turn over to the dark side!
 
Nii no iteasias ku katoin tota pätkää tarkemmin, niin eihän siinä mitään economyi voi ees soittaa, jos noita legaattoja ei pidä siellä. :D
 
And we got caught in the whirlwind // Torn by the storms of our lives.
jniska
16.08.2010 16:27:30
      Linkitä kirjoitukseen Tulosta  

Tonski: Oisko menny jelppikerhoon?
 
No ehkäpä, pistän seuraavan sinne.
 
Laiha Lissu oli paras.
pietari-poika
16.08.2010 17:41:27 (muokattu 16.08.2010 17:41:44)
      Linkitä kirjoitukseen Tulosta  

Toi näyttäs menevän alternatella optimaalisesti jos alottaa ylöspikkauksella. Ja jättää noi legatot poies.
 
Sakmongkol
16.08.2010 18:03:00
      Linkitä kirjoitukseen Tulosta  

pietari-poika: Toi näyttäs menevän alternatella optimaalisesti jos alottaa ylöspikkauksella. Ja jättää noi legatot poies.
 
Päin vastoin. Aloittaa alaspäin ja legatolla kaikki mitkä pystyy!
 
"If you understood everything I say, you'd be me!" ~ Miles Davis
Mad Crokodile
16.08.2010 18:30:19 (muokattu 16.08.2010 18:31:49)
      Linkitä kirjoitukseen Tulosta  

Mä soittasin altternativella, eka alas. Ilman hämmereitä.
 
Toki vasaratkin voi ottaa mukaan niinkun alkuperäisessä pitäski, whatever.
 
d3monilaama
16.08.2010 18:35:25
      Linkitä kirjoitukseen Tulosta  

jniska: Tollanen luritus, 1/16 osia, tempo 105.
Miten tuo olisi hyvä pikata, kertokaas tiluttajat.
 

 
------------12-15p-12----12------------------------------------------------------|
-----12h-15-----------15----15p-12-15p-12----12--------------------------------|
--------------------------------------------14----14p-12-14p-12----12-----------|
------------------------------------------------------------14----14p-12-14|
----------------------------------------------------------------------------------|
----------------------------------------------------------------------------------|
 
edit: olipas vaikea kirjoittaa, kun esikatselu ja lopputulos ei ole samat

 
Mun mielestä menis näin helpoten legatojen kanssa.
 

------------12-15p-12----12-------------------------------------------------------|
-----12h-15-----------15----15p-12-15p---12----12---------------------------------|
--------------------------------------------14----14p-12-14p-12----12-------------|
----------------------------------------------------------------14----14p-12-14---|
----------------------------------------------------------------------------------|
----------------------------------------------------------------------------------|
     A      A   Y     Y  A   Y      Y       Y  A   Y      Y     Y  A   Y     Y

 
Eli siis ajatuksena on se, että pikataan normaalisti alternatella, mutta jätetään ne legatolla tulevat nuotit pickaamatta. Kielten vaihdot tulee näin inside-pickauksella, kuten ilman legatojakin tulisivat, ja muutenkin paljon helpompaa kun tarvittaessa tällä tavalla saa aina seuraavan tahdin ykköselle alas pikkauksen.
 
Menes nyt siitä ryyppäämään, ennen kuin masennut niin pahasti, ettei edes viinakaan enää auta.
« edellinen sivu | seuraava sivu »
1

» Lisää uusi kirjoitus aiheeseen (Vaatii kirjautumisen)

» Kirjaudu sisään

Keskustelualueet «
Haku tästä aiheesta / Haku «
Säännöt «

Copyright ©1999-2016, Muusikoiden Net ry. Kaikki oikeudet pidätetään.
Palaute | Käyttöehdot | Rekisteriseloste | Netiketti | Mediakortti