Muusikoiden.net
03.12.2016
 

Kitarat: soittaminen »

Keskustelualueet | Lisää kirjoitus aiheeseen | HakuSäännöt & Ohjeet | FAQ | Kirjaudu sisään | Rekisteröidy

Aihe: Blues-likit
1
LP99
03.04.2010 10:57:59
      Linkitä kirjoitukseen Tulosta  

Tänne voit lisäillä omia turnaroundejasi tai likkejä.
 
Tässä olisi yksi turnaroundi, helppo sellainen:
 
E||--9-------8-------7-------2------------------------------|
B||-----------------------------------------------------------|
G||--9---9--8----8--7---7---2------------------------------|
D|| ---------------------------1------------------------------|
A||----------------------------2------------------------------|
E||-----------------------------------------------------------|
 
Wally the Whammybar
apenaattori
03.04.2010 11:32:01
      Linkitä kirjoitukseen Tulosta  

http://muusikoiden.net/keskustelu/posts.php?c=38&t=144269
 
Vähän vanha idea. Omasta mielestäni sitäpaitsi yksittäisten lickien opettelu mnetistä tabulatuurien avulla ei ole järin hyödyllistä tai kehittävää.
 
http://img439.imageshack.us/img439/1020/vrjohtoptsqi7.jpg
Kukkis 77
03.04.2010 16:40:36
Musiikkinäyte       Linkitä kirjoitukseen Tulosta  

Tässä mun suosikki

E||-----------------------------------------------------------|
B||-----------------------------------------------------------|
G||-----------------------------------------------------------|
D||----------------4------------------------------------------|
A||-----------------------------------------------------------|
E||-----------------------------------------------------------|
 
"Olen ohjannut suurimman osan elokuvistani kännissä. Poliisikoirakaan ei pysty sanomaan mikä niistä on tehty selvinpäin." -Aki Kaurismäki
padaa@dadaa!
03.04.2010 16:52:44
Musiikkinäyte       Linkitä kirjoitukseen Tulosta  

Jazzin puolella Miles Davisin bändit olivat vuosikaudet kitarattomia ennen In A Silent Wayta, syystä että kitaristit eivät hallitse tätä lickiä
 
E-------------
B-------------
G-------------
D-------------
A-------------
E-------------
 
kimurantti1
03.04.2010 16:54:34
Musiikkinäyte       Linkitä kirjoitukseen Tulosta  

LeoFender: Jazzin puolella Miles Davisin bändit olivat vuosikaudet kitarattomia ennen In A Silent Wayta, syystä että kitaristit eivät hallitse tätä lickiä
 
E-------------
B-------------
G-------------
D-------------
A-------------
E-------------

 
Mä voisin sanoa Coltranesta samaa, Cannonballille olisi voinut antaa kaiken sen tilan, mitä Coltranellekin annettiin..
 
http://www.piecemakerband.com
"Practice cures most tone issues." -John Suhr
B-tone-flat
03.04.2010 19:57:11
      Linkitä kirjoitukseen Tulosta  

Kukkis 77: Tässä mun suosikki

E||-----------------------------------------------------------|
B||-----------------------------------------------------------|
G||-----------------------------------------------------------|
D||----------------4------------------------------------------|
A||-----------------------------------------------------------|
E||-----------------------------------------------------------|

 
Saiskos tähän sormituksen ku ei muuten meinaa taittua?
 
This is what you want, This is what you get!
Muuki
03.04.2010 20:50:11
      Linkitä kirjoitukseen Tulosta  

B-tone-flat: Saiskos tähän sormituksen ku ei muuten meinaa taittua?
 
Koitappa ottaa otelautajalan pikkuvarpaalla. Mulla meni vähän aikaa että opin, oli tosin kaiken vaivan arvoista. Meni myös aika pitkään että ko. likki jäi päähän jonka avulla sitten siirtyi jäseniin. Kyllä se siitä kun pikkuhiljaa opettelet, vaihe vaiheelta. Tempoa ei kannata olla paria enempää noin aluksi.
 
Keksitään kun keretään.
jpjanhun
06.04.2010 18:34:03 (muokattu 06.04.2010 18:41:34)
Musiikkinäyte       Linkitä kirjoitukseen Tulosta  

millasella soundilla tuo soitetaan? käykö ocd suoraan päätteeseen? hyvin muuten alnico 2 soundaa paljon alnico 4:aa makeammalta tässä lickissä.
 
Kukkis 77
06.04.2010 20:28:50
Musiikkinäyte       Linkitä kirjoitukseen Tulosta  

B-tone-flat: Saiskos tähän sormituksen ku ei muuten meinaa taittua?
 
No tässä nyt olis soittonäyte, sormitusta en kerinnyt duunaamaan kun ton Beat Detectiven kanssa puljaamiseen meni sen verran aikaa. Samaten soundia sai ruuvata aikansa, joutui jopa ottamaan Autotunen kehiin.
 
Laitoin wavina että tulee parhaiten kaikki soundin nyanssit esille.
 
http://www.veriryhma.org/Blueslikki.wav
 
"Olen ohjannut suurimman osan elokuvistani kännissä. Poliisikoirakaan ei pysty sanomaan mikä niistä on tehty selvinpäin." -Aki Kaurismäki
jpjanhun
06.04.2010 20:38:00 (muokattu 06.04.2010 20:39:31)
Musiikkinäyte       Linkitä kirjoitukseen Tulosta  

Laitoin wavina että tulee parhaiten kaikki soundin nyanssit esille.
 
aika hyvin tuli nyanssit esille. oliko sulla alnico 5? voitko muuten kertoa sun signaaliketjun että saisin kelvollisen soundin ton tyyppisiä lickejä varten. haluisin vetää just jotain tollasia juttuja.
 
Kukkis 77
06.04.2010 20:46:42
Musiikkinäyte       Linkitä kirjoitukseen Tulosta  

jpjanhun: aika hyvin tuli nyanssit esille. oliko sulla alnico 5? voitko muuten kertoa sun signaaliketjun että saisin kelvollisen soundin ton tyyppisiä lickejä varten. haluisin vetää just jotain tollasia juttuja.
 
Mulla on toi uudempi alnico 5.5.
 
Tossa on ketjussa Super fuzz, Clit Muncher III, Penis Extension Reverb, Dis'n'dat-Über-delay, Philips Toaster, Krunts Megawah 5 sekä Nintendo Special Muffin-Turtles Acoustic Blueslick-Gainbooster Ultimate BB-King-Signature.
 
"Olen ohjannut suurimman osan elokuvistani kännissä. Poliisikoirakaan ei pysty sanomaan mikä niistä on tehty selvinpäin." -Aki Kaurismäki
« edellinen sivu | seuraava sivu »
1

» Lisää uusi kirjoitus aiheeseen (Vaatii kirjautumisen)

» Kirjaudu sisään

Keskustelualueet «
Haku tästä aiheesta / Haku «
Säännöt «

Copyright ©1999-2016, Muusikoiden Net ry. Kaikki oikeudet pidätetään.
Palaute | Käyttöehdot | Rekisteriseloste | Netiketti | Mediakortti