Muusikoiden.net
08.12.2016
 

Kitarat: soittaminen »

Keskustelualueet | Lisää kirjoitus aiheeseen | HakuSäännöt & Ohjeet | FAQ | Kirjaudu sisään | Rekisteröidy

Aihe: Selvennystä tähän Satrianin tilutukseen.
1
jniska
24.09.2009 10:35:07 (muokattu 24.09.2009 10:36:12)
      Linkitä kirjoitukseen Tulosta  

Tarttis vähän apuja, tossa Echo biisissä livenä kohdassa 2:54 alkava ja 3:02 loppuva "luritus", siihen jos saisi tabinpätkää tai edes selvennystä skaalasta jolla se ton vetää.
Auttakee auttakee.
 
http://www.youtube.com/watch?v=Bh9yovTqno4
 
edit: Linkki unohtu
 
Laiha Lissu oli paras
Herra Rapu
24.09.2009 11:01:42
Musiikkinäyte       Linkitä kirjoitukseen Tulosta  

jniska: Tarttis vähän apuja, tossa Echo biisissä livenä kohdassa 2:54 alkava ja 3:02 loppuva "luritus", siihen jos saisi tabinpätkää tai edes selvennystä skaalasta jolla se ton vetää.
Auttakee auttakee.
 
http://www.youtube.com/watch?v=Bh9yovTqno4
 
edit: Linkki unohtu

 
E-mollia vaan alaspäin legato-meisingillä.
 
Ykösellä purkkiin!
FAT = MOTION
Ianuarius
24.09.2009 11:44:51 (muokattu 24.09.2009 11:45:49)
Kotisivu Musiikkinäyte       Linkitä kirjoitukseen Tulosta  

Menisköhän se jotakuinki tähän malliin:
 

     Q     Q      S  S  E.   S  S  S  
E||-------14b----14-12-14---12-------|
B||----------------------------15-12-|
G||----------------------------------|
D||----------------------------------|
A||----------------------------------|
E||----------------------------------|
 
   |--3--|  |--3--|  |--3--|  |--3--|  |--3--| |--3--|  |--3-|  |--3-|
   S  S  S  S  S  S  S  S  S  S  S  S  S  S  S S  S  S  S S  S  S  S S
--14-15-14-12---------------------------------------------------------
--------------15-12-12-13-15-13-12------------------------------------
-----------------------------------14-11-12-14-9-11-12-11-9----------9
------------------------------------------------------------12-10-12--
----------------------------------------------------------------------
----------------------------------------------------------------------
 
   |--3-| |--3--|  |--3-|  |--3-|                  
   S S  S S  S  S  S  S S  S  S S S  S E  S  E.    
-------------------------------------------------||
-------------------------------------------------||
--11-9----9--------------------------------------||
-------12---12-10-12-10-9------------------------||
--------------------------12-10-9-9-10-5--3s-7---||
-------------------------------------------------||

 
Nopeesti vaan plokkailin, niin voi olla virheitäki.
 
EDIT: aika paljonhan siinä on legaattoja matkassa, mutten niitä vaivautunu tuosta videosta poimimaan. Ite soittelen sellaisia monesti aika fiilispohjalta. :)
 
The master of sleep picking
jniska
24.09.2009 20:38:38
      Linkitä kirjoitukseen Tulosta  

Iso kiitos, ei ehkä ihan noin kun tabissa, mutta siitä se lähtee.
Jahka saa sen menemään puhtaasti akustisella suurinpiirtein tuolla tempolla, niin sit se menee kivasti jo JS:lläkin
 
Laiha Lissu oli paras
« edellinen sivu | seuraava sivu »
1

» Lisää uusi kirjoitus aiheeseen (Vaatii kirjautumisen)

» Kirjaudu sisään

Keskustelualueet «
Haku tästä aiheesta / Haku «
Säännöt «

Copyright ©1999-2016, Muusikoiden Net ry. Kaikki oikeudet pidätetään.
Palaute | Käyttöehdot | Rekisteriseloste | Netiketti | Mediakortti