Muusikoiden.net
06.12.2016
 

Laulaminen »

Keskustelualueet | Lisää kirjoitus aiheeseen | HakuSäännöt & Ohjeet | FAQ | Kirjaudu sisään | Rekisteröidy

Aihe: Kissin Rock and roll all niten leulumelodia
1
eki71
24.12.2010 14:24:22
      Linkitä kirjoitukseen Tulosta  

Valahti tämä vahingossa ensin väärään keskusteluipolkuun, joten otetaanpa tämä tänne nyt.
 
Eli osaisiko joku heittää tuon biisin kertosäkeen vokaalinuotit eli siis tämä kohta "I wanna rock and roll all nite and party every day".
 
hola gibson
24.12.2010 22:30:22
      Linkitä kirjoitukseen Tulosta  

Veikkaisin, että kirjastosta löytäisit nuottijuttuja. Mitäs jos kokeilisit nuotintaa itse?
 
eki71
26.12.2010 17:01:41 (muokattu 26.12.2010 17:04:18)
      Linkitä kirjoitukseen Tulosta  

No pitipä ihan kokaista kitaran kanssa pari oktaavia alempaa. Ei tuo kyl ihan oikeelta kuulosta;) Vinkkejä?
 
A ------------3-2--0--10---9s7--5-----------------------
E 5------3-5----------------------------0-5-0-8-5-8-5---
 
18is9
26.12.2010 21:12:31 (muokattu 26.12.2010 21:17:08)
Kotisivu       Linkitä kirjoitukseen Tulosta  

Vire on vissiin vähän omassa hertsiluokassaan. Meinaan ettei 440 Hz kitara osunut mihinkään nuottiin ihan justiinsa.
Jotenkin noin?
 
e-----------------------4----------------4---------
h-----------4---6-6--4---6-4-2---4-6-4----4-6-4---
g--5--3-1----5--------------------------------------
d-----------------------------------------------------
a-----------------------------------------------------
e-----------------------------------------------------
 
"I listened hard but could not see" - YES, And You and I
eki71
27.12.2010 08:52:05
      Linkitä kirjoitukseen Tulosta  

Tänks paljon. Kyllä se noin menee juu.
 
« edellinen sivu | seuraava sivu »
1

» Lisää uusi kirjoitus aiheeseen (Vaatii kirjautumisen)

» Kirjaudu sisään

Keskustelualueet «
Haku tästä aiheesta / Haku «
Säännöt «

Copyright ©1999-2016, Muusikoiden Net ry. Kaikki oikeudet pidätetään.
Palaute | Käyttöehdot | Rekisteriseloste | Netiketti | Mediakortti