Muusikoiden.net
06.12.2016
Rockway LIVE! Joka maanantai ja keskiviikko klo 17-19 

Rock, pop, alternative »

Keskustelualueet | Lisää kirjoitus aiheeseen | HakuSäännöt & Ohjeet | FAQ | Kirjaudu sisään | Rekisteröidy

Aihe: Hurriganes Tsugu Way:n basso soinnut?
1
rulli58
21.12.2011 14:53:44 (muokattu 21.12.2011 22:40:11)
      Linkitä kirjoitukseen Tulosta  

Terve!
Onko kellään tiedossa,miten soitetaan bassolla kyseistä kappaletta? Mieluiten nuottien taikka tabsien kautta.Voisko saada pk.viestillä?
 
kiitos etukäteen!!
 
terv.rulli
 
KTR
21.12.2011 14:59:33
      Linkitä kirjoitukseen Tulosta  

Korvakuulolta blokkailin niin taitaa mennä näin:
 

 
G||------------------8---------------|
D||--------------6-----7-----------3-|
A||----------------5-----4---3---1---|
E||--1-2-3-4-5-6-----------4---2-----|
 
  |-3-| |-3-| |-3-| |-3-|                              |-3-| |-3-|         
  S S S S S S S S S S S S S S S S S S S S    Q.     E  S S S S S S Q    99x
------------------------------------------|-----------------------------*||
--5-4-3-5-4-3-----------------------------|--4------5--4-5-4-3-0-0------*||
--------------6-5-4-----------3-3---------|------------------------0-----||
--------------------5-4-3-2-2-----2-2-1-1-|------------------------------||
 
(°.°)
Sergei Fallinen
21.12.2011 15:03:07 (muokattu 21.12.2011 15:04:17)
      Linkitä kirjoitukseen Tulosta  

PPPPPPPPPPPPPPPPPPPPPPPPPPPPPPPPPPPPPPlokkailit.
 
E. niin ja vastaisuuden varalle näille on oma ketjukin, joskin vähän hassulla palstalla:
 
http://muusikoiden.net/keskustelu/posts.php?c=38&t=125203&o=3540
 
vain taito on rajana
DoctorAgdur
21.12.2011 19:02:55
      Linkitä kirjoitukseen Tulosta  

mitäs täällä simoillaan?
 
"Suck my dick." -Ron Jeremy
Nahkakuri
22.12.2011 01:25:13
      Linkitä kirjoitukseen Tulosta  

G||-----------------------------------|
C||--------------------7--------------|
A||-------------5--5-----5--5--------|
E||--4-4-3-4-------------------------|
 
Tollasta ploggailin äsken, tosi hyvä biisi!
 
rulli58
22.12.2011 20:58:39
      Linkitä kirjoitukseen Tulosta  

Nahkakuri: G||-----------------------------------|
C||--------------------7--------------|
A||-------------5--5-----5--5--------|
E||--4-4-3-4-------------------------|
 
Tollasta ploggailin äsken, tosi hyvä biisi!

 
Moi!Kuulostaa hyvältä!!
Thanks!And Very Rocking Christmas!!!!
 
« edellinen sivu | seuraava sivu »
1

» Lisää uusi kirjoitus aiheeseen (Vaatii kirjautumisen)

» Kirjaudu sisään

Keskustelualueet «
Haku tästä aiheesta / Haku «
Säännöt «

Copyright ©1999-2016, Muusikoiden Net ry. Kaikki oikeudet pidätetään.
Palaute | Käyttöehdot | Rekisteriseloste | Netiketti | Mediakortti