Muusikoiden.net
06.12.2016
ROKKAA MERKONOMIKSI - liiketalouden perustutkinto 

Aloittelijat »

Keskustelualueet | Lisää kirjoitus aiheeseen | HakuSäännöt & Ohjeet | FAQ | Kirjaudu sisään | Rekisteröidy

Aihe: Outo kysymys?
1
Nakki*
12.04.2014 20:23:14 (muokattu 12.04.2014 20:23:57)
      Linkitä kirjoitukseen Tulosta  

Moi, olen tämmöinen aloitteleva soittelija ollut jo kohta 30 vuotta. Ehtoolla jälleen ääniä kitarasta loihtiessa huomasin että tämän voi soittaa joka nauhavälistä samallalailla, miksi? Ainoa ero on ensimmäiseltä nauhalta soitettaessa, lopussa G näpätään vapaana, kun taas ylempänä yksi nauha alempaa. Sama juttu jos pätkän aloittaa ala-Eestä, niin se menee erilailla kuin tämä, mutta samallalailla koko kaulan mitalla. En ymmärrä, onko edes mitään ymmärrettävää?
 
E ----------------4-4-2-------4-4-2--------------------------
B --------4-2-----------4-2-4---------2----------------------
G --1-3-4-----1-1-------------------4---1-1-1-1-1-0-0-1------
D -1---------------------------------------------------------
A -----------------------------------------------------------
E -----------------------------------------------------------
 
Arkka
12.04.2014 22:06:57 (muokattu 12.04.2014 22:18:16)
Musiikkinäyte       Linkitä kirjoitukseen Tulosta  

Nakki*: Moi, olen tämmöinen aloitteleva soittelija ollut jo kohta 30 vuotta. Ehtoolla jälleen ääniä kitarasta loihtiessa huomasin että tämän voi soittaa joka nauhavälistä samallalailla, miksi? Ainoa ero on ensimmäiseltä nauhalta soitettaessa, lopussa G näpätään vapaana, kun taas ylempänä yksi nauha alempaa. Sama juttu jos pätkän aloittaa ala-Eestä, niin se menee erilailla kuin tämä, mutta samallalailla koko kaulan mitalla. En ymmärrä, onko edes mitään ymmärrettävää?
 
E ----------------4-4-2-------4-4-2--------------------------
B --------4-2-----------4-2-4---------2----------------------
G --1-3-4-----1-1-------------------4---1-1-1-1-1-0-0-1------
D -1---------------------------------------------------------
A -----------------------------------------------------------
E -----------------------------------------------------------

 
Koska sävelten korkeuserot, intervallit, pysyvät samoina ja melodia hahmottuu juurikin niiden avulla. Eli siis kahden äänen väli on sävelissä laskettuna yhtä pitkä riippumatta mistä kohtaa samanlaisen jutun soitat. Sävellaji toki nousee mitä ylempää soitat, eli sikäli se ei ole sama.
 
Nakki*
13.04.2014 17:56:23
      Linkitä kirjoitukseen Tulosta  

Ok, kiitoksia.
 
« edellinen sivu | seuraava sivu »
1

» Lisää uusi kirjoitus aiheeseen (Vaatii kirjautumisen)

» Kirjaudu sisään

Keskustelualueet «
Haku tästä aiheesta / Haku «
Säännöt «

Copyright ©1999-2016, Muusikoiden Net ry. Kaikki oikeudet pidätetään.
Palaute | Käyttöehdot | Rekisteriseloste | Netiketti | Mediakortti